Guitar Tabs, Chords and Lyrics


I Can Tell Acoustic  Saosin

|------0------0------0------0------3------1------3------|


|------1------3------1------3------1------1------3------|


|------2------2------0------0------0------2------0------| x 2

|------2------2------2------2------2------3------0------|
|------0------2------3------3------3------0------2------|
|------x------x------x------x------x------x------3------|
       [AM]              [C]               [Fmaj7] [G5] 
Verse 1

We try, but Avalon is always beside me
[AM]And I’m falling apart[C], where is my home?
[Fmaj7]A riot grows in his e[G5]yes opened up
[AM]I once believed that [C]I would set you in line
[Fmaj7]                     [G5]                
Pre Chorus

If only I had the strength then maybe you could believe in something else

|x-------x----------x------------x------------|
|x-------x----------x------------x------------|
|2-------4----------2------------4------------|
|3-------5----------3------------5------------|
|3-------5----------3------------5------------|
|1-------3----------1------------3------------|


Chorus

If you keep asking me I’ll melt away in the summer air
[AM]It won't hurt half as much and I’ll[C] beg for you to stop it now
[Fmaj7]If you keep asking me I’ll melt awa[G5]y in the summer air
[AM]It won't hurt half as much and I’ll[C] beg for you just tell me something
[Fmaj7]                                   [G5]  
Verse 2

Through and through, the alpha waves and power cables everywhere
[AM]Exercising self-control             [C]
[Fmaj7]The child calls,[G5] and she lies open up
[AM]I once believed if o[C]nly I was thinking at all
[Fmaj7]                    [G5]                 
Pre Chorus

If only I had the strength then maybe you could believe in something else

|x-------x----------x------------x------------|
|x-------x----------x------------x------------|
|2-------4----------2------------4------------|
|3-------5----------3------------5------------|
|3-------5----------3------------5------------|
|1-------3----------1------------3------------|


Chorus

If you keep asking me I’ll melt away in the summer air
[AM]It won't hurt half as much and I’ll[C] beg for you to stop it now
[Fmaj7]If you keep asking me I’ll melt awa[G5]y in the summer air
[AM]It won't hurt half as much and I’ll[C] beg for you just tell me something
[Fmaj7]Interlude                          [G5]

|------0------0------0------0------3------1------3------|
|------1------3------1------3------1------1------3------|
|------2------2------0------0------0------2------0------|   x 2
|------2------2------2------2------2------3------0------|
|------0------2------3------3------3------0------2------|
|------x------x------x------x------x------x------3------|


If only I had the strength then maybe you could believe in something else

|x-------x----------x------------x------------|
|x-------x----------x------------x------------|
|2-------4----------2------------4------------|
|3-------5----------3------------5------------|
|3-------5----------3------------5------------|
|1-------3----------1------------3------------|



If you keep asking me I’ll melt away in the summer air
[AM]It won't hurt half as much and I’ll[C] beg for you to stop it now
[Fmaj7]If you keep asking me I’ll melt awa[G5]y in the summer air
[AM]It won't hurt half as much and I’ll[C] beg for you just tell me something
[Fmaj7]                                   [G5]  
any questions email me
bass_master009@hotmail.com

Important: The song above is NOT stored on the Chordie server. The original song is hosted at www.guitaretab.com. Chordie works as a search engine and provides on-the-fly formatting. Chordie does not index songs against artists'/composers' will. To remove this song please click here.

Text color:
Chord color:
Chord grids: 
Font size:    
Page size: 

Am C Fmaj7 G5
variations - click chord images

Login - add to songbook

Transpose chords

Tuning

Rating click stars to rate

Layout
Accuracy

SHARE PAGE  




You need to log in to post comments