Guitar Tabs, Chords and Lyrics


La Celula Que Explota  Saul Hernandez



[---##]                LA CELULA QUE EXPLOTA  (CAIFANES) by Saul Hernadez
                ---------------------------------------------------

Lyrics: Saul Hernandez.
Music: Caifanes.
Album: El Diablito.
Artist's Name: Caifanes

Transcribed by Luis Alonso Cervantes Martinez

cervante@hq.i-set.com.mx

This is the first transcription I made, so be patient whit the notation. I
can't
believe nobody put the "celula" before 'cause is great classic song of Caifanes.

HERE WE GO

      [D]                              [Bm]           [D]                      [Bm]                  
e|---5-5--5-5--3-3----2-----0----|-2-----|-0-0--2-2--3-3--2-0--|-2---2--2----2---|
B|---7-7--7-7--5-5--3---3-2---0--|-3-----|-2-2--3-3--5-5--3-2--|-3---3---3---3---|
G|-------------------------------|-4-----|---------------------|-4---4----4--4---|
D|-------------------------------|-4-----|---------------------|-4---4-----4-4---|
A|-------------------------------|-2-----|---------------------|-2-----------2---|
E|-------------------------------|-------|---------------------|-----------------|


Harm. [D]                              [Bm]           [D]                      [Bm]
e|---5-5--5-5--3-3----2-----0----|-2--|-0-0--2-2--3-3--2-0--|-2---2--2----2--|-<12>--|
B|---7-7--7-7--5-5--3---3-2---0--|-3--|-2-2--3-3--5-5--3-2--|-3---3---3---3--|-<12>--|
G|-------------------------------|-4--|---------------------|-4---4----4--4--|-<12>--|
D|-------------------------------|-4--|---------------------|-4---4-----4-4--|-------|
A|-------------------------------|-2--|---------------------|-2-----------2--|-------|
E|-------------------------------|----|---------------------|----------------|-------|



F#m Bridge
e |---2---|                     e |--0-2-3-2-0-----------|       A=La    F=Fa
G |---2---|                     G |----------------------|       B=Si    G=Sol
D |---4---|                     D |----------------------|       C=Do    Bridge=Puente
A |---4---|                     A |----------------------|       D=Re
E |---2---|                     E |----------------------|       E=Mi


First verse (I guess)

[F#m]Hay veces que no tengo[G] ganas de verte,
F#m G (Bridge)
hay veces que no quiero ni tocarte,
[A]hay veces que quisiera aho[Bm]garte en un grito,
[A]y olvidarme de es[Bm]a imagen tuya
[G]pero n[A]o me at[F#m]revo

                                   [F#m]                                                    
e |---5-5--5-5--3-3----2-----0----|-2-----|
B |---7-7--7-7--5-5--3---3-2---0--|-2-----|
G |-------------------------------|-2-----|
D |-------------------------------|-4-----|
A |-------------------------------|-4-----|
E |-------------------------------|-2-----|


Second Verse
[F#m]Hay veces que no dejo[G] de sonnarte,
F#m G (Bridge)
de acariciarte hasta que ya no pueda.
[A]Hay veces que quisiera m[Bm]orir contigo
[A]y olvidarme de tod[Bm]a materia
[G]pero n[A]o me at[F]revo, uh[G]o oh  [F]     [G]     [F]      [G]


Third Verse
[F#m]Hay veces que no se lo[G] que me pasa
F#m G (Bridge)
ya no puedo saber que es lo que pasa dentro
[A]somos como gat[Bm]os en celo
[A]somos una celu[Bm]la que explota
[G]y esa [A]no la par[F]as
G F G F G F, G, D, Bm, D, Bm, D, Bm.
no oh, no la paras, no oh, no oh.


Enjoy playing this amazing song.

Any questions, please write me back


Alonso (Un Simple Mortal).

Important: The song above is NOT stored on the Chordie server. The original song is hosted at www.guitaretab.com. Chordie works as a search engine and provides on-the-fly formatting. Chordie does not index songs against artists'/composers' will. To remove this song please click here.

Text color:
Chord color:
Chord grids: 
Font size:    
Page size: 

A Bm D F F#m G
variations - click chord images

Login - add to songbook

Transpose chords

Tuning

Rating click stars to rate

Layout
Accuracy

SHARE PAGE  




You need to log in to post comments