Guitar Tabs, Chords and Lyrics


Obsolete   Saves The Day



Saves the day- Obsolete

INTRO:

E|-------------|
B|-------------|
G|-4-------4---|
D|-4-------4---|
A|-2-------2---|
E|-------------|

SONG AS A WHOLE (to lazy to put in lyrics and shiat)

E|--------------------------------------------------------|
B|--------------------------------------------------------|
G|-4/8-8-88-8-888-9999999999------------------------------|
D|-x-x-x-xx-6-888-9999999999-9-9\8-8\6-6\4-9-9\8-8\4-4\22-|
A|-2/6-6-66---666-7777777777-9-9\8-8\6-6\4-9-9\8-8\4-4\22-|
E|---------------------------7-7\6-6\4-4\2-7-7\6-6\2-2\00-|

E|--------------------------------------------------------|
B|--------------------------------------------------------|
G|-4/8-8-88-8-888-9999999999-----------------------9-9\8--|
D|-x-x-x-xx-6-888-9999999999-9-9\8-8\6-6\4-9-9\8-8-9-9\8--|
A|-2/6-6-66---666-7777777777-9-9\8-8\6-6\4-9-9\8-8-7-7\6--|
E|---------------------------7-7\6-6\4-4\2-7-7\6-6--------|

E|--------------------------------------------|
B|--------------------------------------------|
G|-6-88-88-9-9/11-11---------------8888---6-8-|
D|-6-88-88-9-9/11-11-9999999999999-8888-6-6-8-|
A|-4-66-66-7-7/-9--9-9999999999999-6666-6-4-6-|
E|-------------------7777777777777------4-----|

E|-----------------------------------------------------------|
B|-----------------------------------------------------------|
G|-99999999999999-6-88-88-9-9/11-11---------------8888---6-8-|
D|-99999999999999-6-88-88-9-9/11-11-9999999999999-8888-6-6-8-|
A|-77777777777777-4-66-66-7-7/-9--9-9999999999999-6666-6-4-6-|
E|----------------------------------7777777777777------4-----|

E|-------|
B|-------|
G|-9---9-|
D|-9-9-9-|
A|-7-9-7-|
E|---7---|

E|-----------------------------------------------------|
B|-----------------------------------------------------|
G|---------------------------666666666666---8-999999---|
D|-999999999999-444444444444-666666666666-6-8-999999---| x2
A|-999999999999-444444444444-444444444444-6-6-777777---|
E|-777777777777-222222222222--------------4------------|

E|---------------------------------------------|
B|---------------------------------------------|
G|--------------------------66666666-9999-8888-|
D|-9999---9--9-4444---4---4-66666666-9999-8888-| x2
A|-9999---9--9-4444---4---4-44444444-7777-6666-|
E|-7777-77--7--2222-22--22---------------------|

E|---------------------------------------------------------------------|
B|---------------------------------------------------------------------|
G|-----------------------------------9-99999999999999-9-99999999999999-|
D|-9-99999999999999-8-88888888888888-9-99999999999999-9-99999999999999-|
A|-9-99999999999999-9-99999999999999-7-77777777777777-7-77777777777777-|
E|-7-77777777777777-6-66666666666666-----------------------------------|
PM   ..............   ..............   ..............   ..............


E|----------------------------------------------------------------------|
B|----------------------------------------------------------------------|
G|----------------------------------------------------------------------|
D|-9-99999999999999-6-66666666666666-2-22222222222222-2-222222222222222-|
A|-9-99999999999999-6-66666666666666-2-22222222222222-2-222222222222222-|
E|-7-77777777777777-4-44444444444444-0-00000000000000-0-000000000000000-|
PM   ..............   ..............   ..............   .......

E|-------------------------------------------------------------|
B|-------------------------------------------------------------|
G|-888888888888-11-11-11-11-11-11-11-11-11-11-11-11-9999999999-|
D|-xxxxxxxxxxxx-11-11-11-11-11-11-11-11-11-11-11-11-9999999999-|
A|-666666666666--9--9--9--9--9--9--9--9--9--9--9--9-7777777777-|
E|-------------------------------------------------------------|

E|------------------|
B|------------------|
G|-9-9/8-8/6-666666-|
D|-x-x/x-x/x-xxxxxx-|
A|-7-7/6-6/4-444444-|
E|------------------|

E|-------------------------------------------------------------|
B|-------------------------------------------------------------|
G|-888888888888-11-11-11-11-11-11-11-11-11-11-11-11-9999999999-|
D|-xxxxxxxxxxxx-11-11-11-11-11-11-11-11-11-11-11-11-9999999999-|
A|-666666666666--9--9--9--9--9--9--9--9--9--9--9--9-7777777777-|
E|-------------------------------------------------------------|

E|------------------|
B|------------------|
G|-9-9/8-8/6-66-6-6-|
D|-x-x/x-x/x-xx-x-x-|
A|-7-7/6-6/4-44-4-4-|
E|------------------|


Important: The song above is NOT stored on the Chordie server. The original song is hosted at www.guitaretab.com. Chordie works as a search engine and provides on-the-fly formatting. Chordie does not index songs against artists'/composers' will. To remove this song please click here.

This song is displayed as text-only. Transposing and tuning is only available for chordpro-songs.

Login - add to songbook

Rating click stars to rate

Layout
Accuracy

SHARE PAGE  




You need to log in to post comments