Soap Opera

Screeching Weasel

 E5C5D5
e-----------------------------------------------------|
b-----------------------------------------------------|
g---9-9-9-9-9-9-9-9-5-5-5-5-5-5-5-5-7-7-7-7-7-7-7-7---|
D---9-9-9-9-9-9-9-9-5-5-5-5-5-5-5-5-7-7-7-7-7-7-7-7---|
A---7-7-7-7-7-7-7-7-3-3-3-3-3-3-3-3-5-5-5-5-5-5-5-5---|
E-----------------------------------------------------|


(continued)
 C5D5
e---------------------|
b---------------------|
g---5-5-5-5-7-7-7-7---|
D---5-5-5-5-7-7-7-7---|
A---3-3-3-3-5-5-5-5---|
E---------------------|


Verse x2

0:10

Chorus:
 E5G5C5D5
e----------------------------------------|
b----------------------------------------|
g---9-9-9-9-12121212---------------------|
D---9-9-9-9-12121212-10101010-12121212---|
A---7-7-7-7-10101010-10101010-12121212---|
E--------------------8-8-8-8--10101010---|


Chorus x3

(continued)

 E5G5C5D5
e--------------------------------------------------------|
b--------------------------------------------------------|
g---9-9-9-9-12121212-------------------------------------|
D---9-9-9-9-12121212-1010101010101010-1212121212121212---|
A---7-7-7-7-10101010-1010101010101010-1212121212121212---|
E--------------------8-8-8-8-8-8-8-8--1010101010101010---|


Chorus x1 (in all)

0:25

Interlude (Riff 1.)
Gtr. II

e------------------------|
b------------------------|
g---9~~~-----------------|
D---9~~~-----------------|
A---7~~~--------99~~~9---|
E-------------0~~~-0-----|


Gtr. II Interlude Riff x20

Gtr. I

e---0-2-3-2-0--0-2-3-7-2-3-0--3-5-7--8-7-5-0-3-5--6-5-3---|
b---------------------------------------------------------|
g---------------------------------------------------------|
D---------------------------------------------------------|
A---------------------------------------------------------|
E---------------------------------------------------------|


(continued)

e---0-2-3-2-0~---|
b----------------|
g----------------|
D----------------|
A----------------|
E----------------|


Gtr. I Interlude x4

Gtr. II
Riff 2:

Just play E5 (play low and high)

Gtr. I
Riff 2:

e---3p2p0-3-p2p0--7-5-3-2-3p2p0-3-p2p0-3p2p0-3-p2p0-2h3---|
b---------------------------------------------------------|
g---------------------------------------------------------|
D---------------------------------------------------------|
A---------------------------------------------------------|
E---------------------------------------------------------|


Gtr. I Riff 2 x2

Gtr. II
Verse x2

Chorus x1

Verse x2

Verse Variation (1 strum per chord. E5 C5 D5 E5)x2

Chorus x1

2:34

Outro:
 E5
e-------|
b-------|
g---9---|
D---9---|
A---7---|
E-------|


Outro x1


C5 D5 E5 G5
variations - click chord images
Transpose chords:
Tuning:
Cool service:
View: Size:
A  A  A
Rating:
Layout:
  • Currently 3.6/5 Stars.
  • 1
  • 2
  • 3
  • 4
  • 5
 
Accuracy:
  • Currently 2.4/5 Stars.
  • 1
  • 2
  • 3
  • 4
  • 5
 
click stars to rate
Chordie recommends:
Learn to play guitar with video-based, online guitar lessons at JamPlay.com
Songbook:
Login to add this song to your songbook
Support the artist
Preview/buy this song
MSN Music
Why this non-profit ad?

 
login to add comments/video/corrections