Chordie logo


I Started Out With Nothin   Seasick Steve



I Started Out With Nothin by Seasick Steve
from the album - I Started Out With Nothin And I Still Got Most Of It Left
Open D Tuning 

INTRO
D--5b-5p0--------|
A---------8b-----| 
Gb---------------|
D----------------|
A----------------|
D----------------|

                          x4
D--0----0-0----------------|
A--3/5--5-3p0--------------| 
Gb------------1p0----------|
D-----------------x-0---0--|
A-----------------x--------|
D-----------------x---3-0--|
 
                        x7
D-3/4-4------------------|-3/4-4----------|
A-------3p0--------------|-------3p0-3/5--|
Gb----------1p0----------|----------------|
D---------------x-x---0--|----------------|
A---------------x-x------|----------------|
D---------------x-x-3----|----------------|

CHORUS 0.45
D----0-3-3-3---0-0---0-------------------|
A--3---------3-----3---------------------|
Gb----------------------3/5-5--1/3-3--0--|
D-----------------------3/5-5--1/3-3--0--|
A-----------------------3/5-5--1/3-3--0--|
D----------------------------------------|

1.29
D----------------------------------------|
A----------------------------------------|
Gb-3/5-5-5-5-5-5-5-5--3/5-5-5--1/3-3--0--|
D--3/5-5-5-5-5-5-5-5--3/5-5-5--1/3-3--0--|
A--3/5-5-5-5-5-5-5-5--3/5-5-5--1/3-3--0--|
D----------------------------------------|

1.50
D--5/7-0--3/4-0-------5/7-0--3~--5/7-0--3/4-0-------5/12--0-3\0--|
A----------------------------------------------------------------|
Gb---------------------------------------------------------------|
D---------------0-----------------------------0------------------|
A----------------------------------------------------------------|
D-----------------3p0---------------------------3p0--------------|

cont. from above
D--5/7-0--3/4-0-------5/7-0--3~--5/7-0--3/4-0-------5-5-0-5/7-0----------|
A---------------------------------------------------------------3p0-3/5--|
Gb-----------------------------------------------------------------------|
D---------------0-----------------------------0--------------------------|
A------------------------------------------------------------------------|
D-----------------3p0---------------------------3p0----------------------|

OUTRO
D----0-3-3-3---0-0---0-----------------------|
A--3---------3-----3-------------------3~~~--| played very slowly
Gb---------------------3/5--1/3------0-------| 
D----------------------3/5--1/3----0---------| 
A----------------------3/5--1/3--0-----------|
D--------------------------------------------|

Any corrections please comment
Thanks


Important: The song above is NOT stored on the Chordie server. The original song is hosted at www.guitaretab.com. Chordie works as a search engine and provides on-the-fly formatting. Chordie does not index songs against artists/composers will. To remove this song please click here.

This song is displayed as text-only. Transposing and tuning is only available for chordpro-songs.

Login - add to songbook

Rating click stars to rate

Layout
Accuracy

SHARE PAGE  




You need to log in to post comments