Guitar Tabs, Chords and Lyrics


Take Me With You  Secondhand Serenade

   [E]    [A2]     [C#m]      [B]                                       
|----------------------|
|----------------------|
|--4----4----4----4----|
|--2----2----2----4----|
|--2---------4----2----|
|----------------------|



Intro:

   [E]       [A2]       [C#m]        [B]                               
|-------0-------0------0------0-----|
|--------0-----0-0----0-0----0-0----|
|-----4-------4------4------4---4---|
|----2-------2------2------4-----4--|
|-2-2-------0------4------2---------|
|--0--------------------------------|


         [E]       [A2]      [C#m]       [B]                           
      |------0----0-------0-------|
      |-----0-0----0-----0-0------|
cont  |----4------------4---4-----|
      |---2------------2-----4----|
      |--2------0-----4-------2---|
      |---------------------------|

E – A2 – C#m – B (x2)


Please [E]forgive me if I seem [A2]forward
But I'v[C#m]e never been in front of[B] anything like[E] you
It’s the [A2]last place I ever [C#m]thought I'd be
When I [B]woke up this morning [E]
Is it [A2]true?
And that you're [C#m]always this breath[B]taking
And your [E]smart and you're willing
My [A2]God this is ki[C#m]lling me [B]
Pre-Chorus:
[A2]Tell me all the [B]things you never [C#m]said
We can [A2]lie here and talk for [B]hours in m[C#m]y bed


Chorus:
[E]I don't have [C#m]anything to h[A2]ide
[E]I don't have [B]anything
[C#m]Everything is n[A2]ot for certain
[E]I don't have[C#m] anything to h[A2]ide
[E]I don't have [B]anything
[C#m]Everything is n[A2]ot for certain


(Intro picking)


You’re [E]starting to see right [A2]through me
And I'[C#m]m loving every [B]minute of it[E]
It’s like I'm [A2]born again[C#m]
Every time [B]I breath in so,[E]
If you're [A2]curious,
My [C#m]favorite color's [B]blue
And I [E]like to sing in the [A2]shower
If you [C#m]like, I'll sing to [B]you
(Pre-Chours)


(Chorus)


Interlude:

e|----0-----0-----0-----0-----0-----0-----0-----0---|
b|---0-0---0-0---0-0---0-0---0-0---0-0---0-0---0-0--|
g|--------------------------------------------------|
D|--------------------------------------------------|
A|-4-----4-----0-----0-----------------2-----2------|
E|-------------------------0-----0------------------|



[E]Tell me all of your [A2]hopes,
All of your [C#m]dreams
I want you to [B]take me there (take me the[E]re)
Tell me all of your [A2]hopes,
All of your [C#m]dreams
I want to [B]take you there (take you the[E]re)
Tell me every[A2]thing
Every [C#m]breath, I want you to [B]know I'll be there[E]
There’s just one more [A2]thing,
One re[C#m]quest
I want you to [B]take me with you
Ending: (x6)

[C#m]Take me with you [A2]
I will never let you [E]down
I will love you [B]now and forever

Important: The song above is NOT stored on the Chordie server. The original song is hosted at www.guitaretab.com. Chordie works as a search engine and provides on-the-fly formatting. Chordie does not index songs against artists'/composers' will. To remove this song please click here.

Text color:
Chord color:
Chord grids: 
Font size:    
Page size: 

A2 B C#m E
variations - click chord images

Login - add to songbook

Transpose chords

Tuning

Rating click stars to rate

Layout
Accuracy

SHARE PAGE  




You need to log in to post comments