Guitar Tabs, Chords and Lyrics


Satellite   Sex Pistols



Satellite Tab by Sex Pistols

Tabbed By Mathias Braathen

Intro:                     
|-----------------||--------------------------x3||
|-----------------||----------------------------||
|-----------------||*--------------------7--7--*||
|--7--7--7----/\7-||*--7-7---7-7---7--4--7--7--*||
|--7--7--7----/\7-||---7-7---7-7---7--4--5--5---||
|--5--5--5----/\5-||---5-5---5-5---5--2---------||

Intro Part 2:

|-------------------------|
|-------------------------|
|-------------------------|
|--7-7---7-7---7----------|
|--7-7---7-7---7----------|
|--5-5---5-5---5--2/12\0--|

Verse:

||--------------------------x4||
||----------------------------||
||*------------------------7-*||
||*-7-7---7---7---7---7--4-7-*||
||--7-7---7---7---7---7--4-5--||
||--5-5---5---5---5---5--2----||

Chorus:

||--------------------------x3||
||----------------------------||
||*-9--9--9--9--9--9---12-11--||
||*-9--9--9--9--9--9---12-11-*||
||--7--7--7--7--7--7---10-9--*||
||----------------------------||

Chorus Part 2:

|--------------------|
|--------------------|
|--9--9--9--9--9-----|
|--9--9--9--9--9-----|
|--7--7--7--7--7-----|
|--------------------|


And then..

Verse:

||--------------------------x4||
||----------------------------||
||*------------------------7-*||
||*-7-7---7---7---7---7--4-7-*||
||--7-7---7---7---7---7--4-5--||
||--5-5---5---5---5---5--2----||

Chorus:

||--------------------------x3||
||----------------------------||
||*-9--9--9--9--9--9---12-11--||
||*-9--9--9--9--9--9---12-11-*||
||--7--7--7--7--7--7---10-9--*||
||----------------------------||

Chorus Part 2:

|--------------------|
|--------------------|
|--9--9--9--9--9-----|
|--9--9--9--9--9-----|
|--7--7--7--7--7-----|
|--------------------|


Verse:

||--------------------------x4||
||----------------------------||
||*------------------------7-*||
||*-7-7---7---7---7---7--4-7-*||
||--7-7---7---7---7---7--4-5--||
||--5-5---5---5---5---5--2----||


Chorus:

||--------------------------x3||
||----------------------------||
||*-9--9--9--9--9--9---12-11--||
||*-9--9--9--9--9--9---12-11-*||
||--7--7--7--7--7--7---10-9--*||
||----------------------------||

Chorus Part 2:

|--------------------|
|--------------------|
|--9--9--9--9--9-----|
|--9--9--9--9--9-----|
|--7--7--7--7--7-----|
|--------------------|

Chorus Part 3:

|------------|
|------------|
|---------7--|
|--7---7--7--|
|--7---7--5--|    
|--5---5-----|     
                   
Part 4:      I'am Not Sure About Thes Two Parts!!

||-----------x8||
||-------------||
||*-------7---*||
||*-7--7--7---*||
||--7--7--5----||
||--5--5-------||


Solo:

||-------------------x4||
||-----------------4b--||
||*----------------4b-*||
||*-7--7--7--4--7-----*||
||--7--7--7--4--7------||
||--5--5--5--2--5------||

And then..

Verse 2:

PM-------------------------------------------------|
 
||------------------------------------------------x4||
||--------------------------------------------------||
||*----------------------------------7--7--7--7--7-*||
||*-7--7--7--7--7--7--7--7--4--4--4--7--7--7--7--7-*||
||--7--7--7--7--7--7--7--7--4--4--4--5--5--5--5--5--||
||--5--5--5--5--5--5--5--5--2--2--2-----------------||

Then..

The Chorus:

||--------------------------x3||
||----------------------------||
||*-9--9--9--9--9--9---12-11--||
||*-9--9--9--9--9--9---12-11-*||
||--7--7--7--7--7--7---10-9--*||
||----------------------------||

Chorus Part 2:

|--------------------|
|--------------------|
|--9--9--9--9--9-----|
|--9--9--9--9--9-----|
|--7--7--7--7--7-----|
|--------------------|

Verse:

||--------------------------x4||
||----------------------------||
||*------------------------7-*||
||*-7-7---7---7---7---7--4-7-*||
||--7-7---7---7---7---7--4-5--||
||--5-5---5---5---5---5--2----||

Chorus:

||--------------------------x3||
||----------------------------||
||*-9--9--9--9--9--9---12-11--||
||*-9--9--9--9--9--9---12-11-*||
||--7--7--7--7--7--7---10-9--*||
||----------------------------||

Chorus Part 2:

|--------------------|
|--------------------|
|--9--9--9--9--9-----|
|--9--9--9--9--9-----|
|--7--7--7--7--7-----|
|--------------------|

*Solo 2*



Important: The song above is NOT stored on the Chordie server. The original song is hosted at www.guitaretab.com. Chordie works as a search engine and provides on-the-fly formatting. Chordie does not index songs against artists/composers will. To remove this song please click here.

This song is displayed as text-only. Transposing and tuning is only available for chordpro-songs.

Login - add to songbook

Rating click stars to rate

Layout
Accuracy

SHARE PAGE  




You need to log in to post comments