""; ?> Satellite by Sex Pistols - guitar chords, guitar tabs and lyrics - chordie

Satellite

Sex Pistols


Satellite Tab by Sex Pistols
Tabbed By Mathias Braathen
Intro: |-----------------||--------------------------x3|| |-----------------||----------------------------|| |-----------------||*--------------------7--7--*|| |--7--7--7----/\7-||*--7-7---7-7---7--4--7--7--*|| |--7--7--7----/\7-||---7-7---7-7---7--4--5--5---|| |--5--5--5----/\5-||---5-5---5-5---5--2---------||
Intro Part 2:
|-------------------------| |-------------------------| |-------------------------| |--7-7---7-7---7----------| |--7-7---7-7---7----------| |--5-5---5-5---5--2/12\0--|
Verse:
||--------------------------x4|| ||----------------------------|| ||*------------------------7-*|| ||*-7-7---7---7---7---7--4-7-*|| ||--7-7---7---7---7---7--4-5--|| ||--5-5---5---5---5---5--2----||
Chorus:
||--------------------------x3|| ||----------------------------|| ||*-9--9--9--9--9--9---12-11--|| ||*-9--9--9--9--9--9---12-11-*|| ||--7--7--7--7--7--7---10-9--*|| ||----------------------------||
Chorus Part 2:
|--------------------| |--------------------| |--9--9--9--9--9-----| |--9--9--9--9--9-----| |--7--7--7--7--7-----| |--------------------|
And then..
Verse:
||--------------------------x4|| ||----------------------------|| ||*------------------------7-*|| ||*-7-7---7---7---7---7--4-7-*|| ||--7-7---7---7---7---7--4-5--|| ||--5-5---5---5---5---5--2----||
Chorus:
||--------------------------x3|| ||----------------------------|| ||*-9--9--9--9--9--9---12-11--|| ||*-9--9--9--9--9--9---12-11-*|| ||--7--7--7--7--7--7---10-9--*|| ||----------------------------||
Chorus Part 2:
|--------------------| |--------------------| |--9--9--9--9--9-----| |--9--9--9--9--9-----| |--7--7--7--7--7-----| |--------------------|
Verse:
||--------------------------x4|| ||----------------------------|| ||*------------------------7-*|| ||*-7-7---7---7---7---7--4-7-*|| ||--7-7---7---7---7---7--4-5--|| ||--5-5---5---5---5---5--2----||
Chorus:
||--------------------------x3|| ||----------------------------|| ||*-9--9--9--9--9--9---12-11--|| ||*-9--9--9--9--9--9---12-11-*|| ||--7--7--7--7--7--7---10-9--*|| ||----------------------------||
Chorus Part 2:
|--------------------| |--------------------| |--9--9--9--9--9-----| |--9--9--9--9--9-----| |--7--7--7--7--7-----| |--------------------|
Chorus Part 3:
|------------| |------------| |---------7--| |--7---7--7--| |--7---7--5--| |--5---5-----| Part 4: I'am Not Sure About Thes Two Parts!!
||-----------x8|| ||-------------|| ||*-------7---*|| ||*-7--7--7---*|| ||--7--7--5----|| ||--5--5-------||
Solo:
||-------------------x4|| ||-----------------4b--|| ||*----------------4b-*|| ||*-7--7--7--4--7-----*|| ||--7--7--7--4--7------|| ||--5--5--5--2--5------||
And then..
Verse 2:
PM-------------------------------------------------| ||------------------------------------------------x4|| ||--------------------------------------------------|| ||*----------------------------------7--7--7--7--7-*|| ||*-7--7--7--7--7--7--7--7--4--4--4--7--7--7--7--7-*|| ||--7--7--7--7--7--7--7--7--4--4--4--5--5--5--5--5--|| ||--5--5--5--5--5--5--5--5--2--2--2-----------------||
Then..
The Chorus:
||--------------------------x3|| ||----------------------------|| ||*-9--9--9--9--9--9---12-11--|| ||*-9--9--9--9--9--9---12-11-*|| ||--7--7--7--7--7--7---10-9--*|| ||----------------------------||
Chorus Part 2:
|--------------------| |--------------------| |--9--9--9--9--9-----| |--9--9--9--9--9-----| |--7--7--7--7--7-----| |--------------------|
Verse:
||--------------------------x4|| ||----------------------------|| ||*------------------------7-*|| ||*-7-7---7---7---7---7--4-7-*|| ||--7-7---7---7---7---7--4-5--|| ||--5-5---5---5---5---5--2----||
Chorus:
||--------------------------x3|| ||----------------------------|| ||*-9--9--9--9--9--9---12-11--|| ||*-9--9--9--9--9--9---12-11-*|| ||--7--7--7--7--7--7---10-9--*|| ||----------------------------||
Chorus Part 2:
|--------------------| |--------------------| |--9--9--9--9--9-----| |--9--9--9--9--9-----| |--7--7--7--7--7-----| |--------------------|
*Solo 2*
And then the intro ...

variations - click chord images
Transpose chords:
Tuning:
Cool service:
View: Size:
A  A  A
Rating:
Layout:
  • Currently 0/5 Stars.
  • 1
  • 2
  • 3
  • 4
  • 5
 
Accuracy:
  • Currently 2.7/5 Stars.
  • 1
  • 2
  • 3
  • 4
  • 5
 
click stars to rate
Chordie recommends:
Learn how to play guitar at JamPlay.com
Songbook:
Login to add this song to your songbook
Support the artist
Preview/buy this song
MSN Music
Why this non-profit ad?

 
login to add comments/video/corrections