Guitar Tabs, Chords and Lyrics


This Is Not A Love Song   Sex Pistols



intro

e|---------------------------------------------------------------|
B|-----6-----8------10-------13----12----10----------------------|
G|---------------------------------------------------------------|
D|-5/7---7/9---9/10----10/14----12----10----10-------------------|
A|---------------------------------------------------------------|
E|---------------------------------------------------------------|

e|---------------------------------------------------------------|
B|-----6-----8------10-------------------------------------------|
G|---------------------------------------------------------------|
D|-5/7---7/9---9/10----------------------------------------------|
A|---------------------------------------------------------------|
E|---------------------------------------------------------------|

x4

e|---------------------------------------------------------------|
B|---------------------------------------------------------------|
G|-10-10-10-9-9--------------------------------------------------|
D|-10-10-10-9-9-7-7-7-7-7-7-7-7----------------------------------|
A|-8--8--8--7-7-7-7-7-7-7-7-7-7----------------------------------|


Important: The song above is NOT stored on the Chordie server. The original song is hosted at www.guitaretab.com. Chordie works as a search engine and provides on-the-fly formatting. Chordie does not index songs against artists/composers will. To remove this song please click here.

This song is displayed as text-only. Transposing and tuning is only available for chordpro-songs.

Login - add to songbook

Rating click stars to rate

Layout
Accuracy

SHARE PAGE  




You need to log in to post comments