Chordie logo
content loaded from cache

WONDERFUL LAND  Shadows

  ----------------------------



    [G]       [F]            [G]      [F]    [G]       [F]            [G]      [F]                             
E |-15----13-12-------|--------|-15----13-12-------|--------||
B |-------------15-13-|-15-----|-------------15-13-|-15-----||
G |-------------------|--------|-------------------|--------||
D |-------------------|--------|-------------------|--------||
A |-------------------|--------|-------------------|--------||
E |-------------------|--------|-------------------|--------||

    [G]        [D]          [F]  [Dm]      [C]      [Am]    [C]  [Am]      [F]      [Dm]      [Bb]            [G]              
E |-------|---------|-------|---------|-------|-----------|-----------|-----|
B |-------|---------|-------|---------|-----5-|-6-6-5-----|-----------|-----|
G |-------|---------|-------|-5-5-----|-5-7---|-------7-5-|-7-(7)-7-7-|--7--|
D |-5---5-|-7-7-4---|-7---7-|-----5---|-------|-----------|-----------|-----|
A |---5---|-------5-|---8---|-------7-|-------|-----------|-----------|-----|
E |-------|---------|-------|---------|-------|-----------|-----------|-----|

    [C]  [2]     [Em]   [3]    [C]  [2]      [F]     [Dm]   [2]    [C]      [G]      [Dm]   [2]     [Fm]                            
E |-------|-----|-------|-5---|-5---|-----|-----|-------|------|
B |-5-----|-----|-5-----|-----|-----|--8--|-----|-6-5-6-|------|
G |---5---|-----|---5---|-----|-----|-----|-7---|-------|-5----|
D |-----7-|-5---|-----5-|-----|-----|-----|-----|-------|---6--|
A |-------|-----|-------|-----|-----|-----|-----|-------|------|
E |-------|-----|-------|-----|-----|-----|-----|-------|------|

    [Em]   [2]                                                                               
E |-------------|-------------|-------------||
B |-------------|-------------|-------------||
G |-------------|-------------|-------------||
D |-5-(5)---5-9-|-5-(5)---5-9-|-5-(5)---5-9-||
A |-------7-----|-------7-----|-------7-----||
E |-------------|-------------|-------------||

    [G]       [D]             [F]  [Dm]      [C]        [Am]     [C]  [Am]      [F]      [Dm]      [Bb]            [G]         
E |------|------------|-------|------------|-------|-----------|-----------|---|
B |------|------------|-------|------------|-----5-|-6-6-5-----|-----------|---|
G |------|------------|-------|-5-55-5-----|-5-7---|-------7-5-|-7-(7)-7-7-|-7-|
D |5---5-|-7-77-7-4---|-7---7-|--------5---|-------|-----------|-----------|---|
A |--5---|----------5-|---8---|----------7-|-------|-----------|-----------|---|
E |------|------------|-------|------------|-------|-----------|-----------|---|
   (muted)---------------------------------------------------

  [C]  [2]   [Em]   [3]   [F]       [G]       [C]  [2]    [Em]   [3]   [F]        [G]    [C]  [2]                                 
E |-8-7---|----8----------|----8-7---|----8------|-12-10-7-|
B |-----8-|-10---10-8-----|--------8-|-10---10-8-|---------|
G |-------|-----------9-7-|----------|-----------|---------|
D |-------|---------------|-10-------|-----------|---------|
A |-------|---------------|----------|-----------|---------|
E |-------|---------------|----------|-----------|---------|
   ----------------------|

    [F]       [G]                [Em]   [2]                                                        
E |-8-10-8-7-------------|---------|-------------|-------------||
B |----------10-(10)-----|-8-------|-------------|-------------||
G |--------------------9-|---------|-------------|-------------||
D |-----------------/9---|-----5-9-|-5-(5)---5-9-|-5-(5)---5-9-||
A |----------------------|---7-----|-------7-----|-----7-------||
E |----------------------|---------|-------------|-------------||

   [G]        [D]             [F]  [Dm]      [C]        [Am]     [C]  [Am]      [F]      [Dm]      [Bb]            [G]         
E |------|------------|-------|------------|-------|-----------|-----------|---|
B |------|------------|-------|------------|-----5-|-6-6-5-----|-----------|---|
G |------|------------|-------|-5-55-5-----|-5-7---|-------7-5-|-7-(7)-7-7-|-7-|
D |5---5-|-7-77-7-4---|-7---7-|--------5---|-------|-----------|-----------|---|
A |--5---|----------5-|---8---|----------7-|-------|-----------|-----------|---|
E |------|------------|-------|------------|-------|-----------|-----------|---|
   (muted)--------------------------------------------------

  [C]  [2]   [Em]   [3]   [F]       [G]       [C]  [2]    [Em]   [3]   [F]        [G]    [C]  [2]                                 
E |-8-7---|----8----------|----8-7---|----8------|-12-10-7-|
B |-----8-|-10---10-8-----|--------8-|-10---10-8-|---------|
G |-------|-----------9-7-|----------|-----------|---------|
D |-------|---------------|-10-------|-----------|---------|
A |-------|---------------|----------|-----------|---------|
E |-------|---------------|----------|-----------|---------|
   ----------------------|

    [F]       [G]                [Em]   [3]                                                        
E |-8-10-8-7-------------|-----------7-|---------------7-|---||
B |----------10-(10)-----|-8-(8)-5-8---|-8-7-8-(8)-5-8---|-8-||
G |--------------------9-|-------------|-----------------|---||
D |-----------------/9---|-------------|-----------------|---||
A |----------------------|-------------|-----------------|---||
E |----------------------|-------------|-----------------|---||

    [G]       [F]             [G]     [F]    [G]      [F]              [G]     [F]                            
E |-15----13-12-------|--------|-15----13-12-------|--------||
B |-------------15-13-|-15-----|-------------15-13-|-15-----||
G |-------------------|--------|-------------------|--------||
D |-------------------|--------|-------------------|--------||
A |-------------------|--------|-------------------|--------||
E |-------------------|--------|-------------------|--------||

Chords :
     [G]     [F]     [D]     [Dm]      [C]     [Am]      [Bb]      [C]  [2]     [Em]   [2]     [Dm]   [2]     [Fm]      [Em]   [3]          
E |--3----1----2-----1----0-----0-----6-----8------7-------1-------4-----3----|
B |--3----1----3-----3----1-----1-----6-----8------8-------3-------6-----5----|
G |--4----2----2-----2----0-----2-----7-----9------9-------2-------5-----4----|
D |--5----3----0-----0----2-----2-----8----10------9-------3-------6-----5----|
A |--5----3---------------3-----0-----8----10---------------------------------|
E |--3----1--------------------------------------------------------4-----3----|

*******************************************************************************
Keep rockin !
Max ( Max_Guitarplayer@hotmail.com )
*******************************************************************************

Important: The song above is NOT stored on the Chordie server. The original song is hosted at www.guitaretab.com. Chordie works as a search engine and provides on-the-fly formatting. Chordie does not index songs against artists/composers will. To remove this song please click here.

Am Bb C D Dm Em F Fm G
variations - click chord images

Transpose chords

Tuning

Rating click stars to rate

Layout
Accuracy

SHARE PAGE  

You need to log in to post comments