Guitar Tabs, Chords and Lyrics


Queen Of Argyll  Silly Wizard

e|---5-----5--------|


B|---6-6-8---6-5-h6-|


G|---7--------------|  Riff 1

D|-0-0--------------|
A|------------------|
E|------------------|
e| --------3-----3-----3-----3-----------------------------|
B|-3-5---5-----5-----5-----5-----5---5---------------------|
G|-----5-----4-----5-----4-----5---4-----------------------|
D|---------------------------------------------------------| Riff 2
A|---------------------------------------------------------|
E|---------------------------------------------------------|
e| --------1-----1---------------3-----3-------------------|
B|-3-1---3-----3-----3-(3>5)---5-----5-----5---------------|
G|-----3-----3-----3---(3>5)-5-----5-----5-----------------|
D|---------------------------------------------------------|
A|---------------------------------------------------------|
E|---------------------------------------------------------|
e| --------1-----1---------------3-----3-------------------|
B|-3-1---3-----3-----3-(3>5)---5-----5-----5---------------|
G|-----3---->2---->3---(3>5)-5---->4---->5-----------------|
D|---------------------------------------------------------|
A|---------------------------------------------------------|
E|---------------------------------------------------------|
Gentle[Dm] men it is my duty[C]  [G]  [C]  To in[Dm]form you of one beauty[C]  [G]  [C]
Though I'd a[Dm]sk you of a favor, no to s[C]eek[G] he[C]r f[G]or [C]awh[G]ile
Though I [Dm]own she is a creature[C]  [G]  [C] Of [Dm]character and feature[C]  [G]  [C]
No [Dm]words can [Bb]paint the [C]picture of the [Am]Queen of ole Ar[Dm]gyll
CHORUS (Same chord progression)
And if you could have seen her there, boys if you had just been there
This one was in her movement, and the morning in her smile
All the roses in the garden, they bow and ask her pardon
For not one could match the beauty of the queen of ole Argyll

More Verses:
On that evening that I mention, I passed with light intention
Through a part of our dear country known for beauty and for style
Bein' a place of noble thinkers, of scholars and great drinkers
But above them all for splendour shone the Queen of Ole Argyll

CHORUS
Throw in a solo here.

So my lads my needs must leave you, my intention no to grieve you
Nor indeed would I decieve you, oh I'll see you in awhile
I must find some way to gain her, to court her and to tame her
I fear my heart's in danger from the Queen of ole Argyll

CHORUS (do it twice or so)
FINALE -- run through the Riffs..

Great song, I still have not mastered the lead stuff fully, but then again
it took two guitars to do it on the albulm. Have fun, and if you enjoyed this
TAB, and have other Celtic stuff. PLEASE! post it on alt.guitar.tab, or FTP
it to ftp.nevada.edu...or mail it to me. Thanks.

HIRSCHFB@CORRAL.UWYO.EDU In the great state of Wyoming. O O
or @POSSE.UWYO.EDU "Wander Nebraska!" NE State Logo >@@<
"Find Yourself in Wyoming" WY State Logo \/

Important: The song above is NOT stored on the Chordie server. The original song is hosted at www.guitaretab.com. Chordie works as a search engine and provides on-the-fly formatting. Chordie does not index songs against artists'/composers' will. To remove this song please click here.

Text color:
Chord color:
Chord grids: 
Font size:    
Page size: 

Am Bb C Dm G
variations - click chord images

Login - add to songbook

Transpose chords

Tuning

Rating click stars to rate

Layout
Accuracy

SHARE PAGE  




You need to log in to post comments