""; ?> Call It Karma by Silverstein - guitar chords, guitar tabs and lyrics - chordie

Call It Karma

Silverstein

 F-133211
 -  x32010
Am - x02210
Dm - xx0231
G - 320003

Verse 1:
 F
Blame it on the weather
 Am
But I'm a mess
 F
And this February darkness
 Am
has me hating everyone
 F
And I know I need your comfort
 Am
but this drama makes me sick
 F
And the longer I lay here
 Am
I know it's harder
to get up without you

Chorus:
 DmF
   Lose another day here
 Am
Lose another year here
 C
I'm with you

Verse 2:
 F
Find me something out
 Am
there that's making sense
 F
And it's just another trend
 Am
carefully hidden in your dress
 F
And the cycles neverending
 Am
and the fashions overdone
 F
And the further
that I run away
 Am
the further I'll
come back to shelter

(Repeat Chorus)

Bridge:
 FAm
   You are the fire on
 F
my apartment floor
 Am
Sixteen stories I'd
 F
rather burn then fall
 Am
It isn't fate that
 F
took us all by storm
 Am
It's just the turn
 C
of a card

Interlude 1: F--Am x4

Lead:
 FAm
e|-------0h1p0--0h1p0----|-------0h1p0--0h1-8----|
B|----1----------------1-|----1----------------8-|
G|-0---------------------|-0---------------------|
D|-----------------------|-----------------------|
A|-----------------------|-----------------------|
E|-----------------------|-----------------------|


 FAm
e|-8--------8-------|----------|
B|----8--------8----|-1---3--1-|
G|-------9--------9-|----------|
D|------------------|----------|
A|------------------|----------|
E|------------------|----------|


 FAm
e|-8--7------12--10--8-|-12--10--8h10h12--8h10p8-10-|
B|-------10------------|----------------------------|
G|---------------------|----------------------------|
D|---------------------|----------------------------|
A|---------------------|----------------------------|
E|---------------------|----------------------------|


 FAm
e|-15--13--12--15--13--12-|-15p13p12h15p13p12h15p13p12h15p13p12h15p13p12-|
B|------------------------|----------------------------------------------|
G|------------------------|----------------------------------------------|
D|------------------------|----------------------------------------------|
A|------------------------|----------------------------------------------|
E|------------------------|----------------------------------------------|


(Repeat Chorus)
(Repeat Bridge)

Interlude 2: Am--G--F--


Lead:
 AmG
e|---------------------------------|---------------------------------|
B|---------------------------------|---------------------------------|
G|---------------------------------|---------------------------------|
D|-------3-----2-----0-----2---3---|-------3-----2-----0---------0---|
A|-0-0-0---0-0---0-0---0-0---0---0-|-------------------------3-------|
E|---------------------------------|-3-3-3---3-3---3-3---3-3---3---3-|


 F
e|---------------------------------|
B|---------------------------------|
G|-------0-------------------------|
D|-------------3-----2-----0---2---| x2
A|---------------------------------|
E|-1-1-1---1-1---1-1---1-1---1---1-|


Outro: While doing lead

 AmG
Goodbye old friend
 F
Goodbye goodnight

Distortion:

Am--Am--Am--Riff


Riff:
e|-3/8-8-8-8-8-8-8-8--|
B|-----------------------------|
G|-----------------------------|
D|-----------------------------|
A|-----------------------------|
E|-----------------------------|


 G
I'll move on
 F
You'll call it fate
I'll call it karma
 AmG
   We had our time
 F
it was fun
While it lasted

Am--Am--Am--Riff


Riff:
e|-3/8-8-8-8-8-8-8-8--|
B|-----------------------------|
G|-----------------------------|
D|-----------------------------|
A|-----------------------------|
E|-----------------------------|


 G
I'll look back with
 F
 honor and no regrets
 Am
won't be mad
 G
 won't feel bad
 F
These memories will
never leave me
 AmG
   Don't be sad
 F
Cause life goes
on life goes on
 AmG
   It's getting too late
 F
 Tomorrow is here

Am--Am--Am--Riff--Am(end)


Riff:
e|-3/8-8-8-8-8-8-8-8--|
B|-----------------------------|
G|-----------------------------|
D|-----------------------------|
A|-----------------------------|
E|-----------------------------|				



Am C Dm F G
variations - click chord images
Transpose chords:
Tuning:
Cool service:
View: Size:
A  A  A
Rating:
Layout:
  • Currently 3.1/5 Stars.
  • 1
  • 2
  • 3
  • 4
  • 5
 
Accuracy:
  • Currently 3/5 Stars.
  • 1
  • 2
  • 3
  • 4
  • 5
 
click stars to rate
Chordie recommends:
Get acoustic guitar lessons and electric guitar lessons at JamPlay.com
Songbook:
Login to add this song to your songbook
Support the artist
Preview/buy this song
MSN Music
Why this non-profit ad?

 
login to add comments/video/corrections