"yes"; ?> Old Albion by Skrewdriver - guitar chords, guitar tabs and lyrics - chordie

Old Albion

Skrewdriver

-------------------------------------------------------------------------------

-------------------------------------------------------------------------------

 AEGD
e|-0--0-------|-0--0-------|-3--3-------|-2--2-------|
B|-2-----2----|-0-----0----|-3-----3----|-3-----3----|
G|-2-------2--|-1-------1--|-0-------0--|-2-------2--|
D|-2----------|-2----------|-0----------|-0----------|
A|-0----------|-2----------|-2----------|------------|
E|------------|-0----------|-3----------|------------|


The above pattern of strumming works very well with this song.

 AEGD
The scent of an English meadow wafts gently through the bars

 AEGD
The sounds of summer harvesting, can be heard from afar

 AEGD

The beauty of old Albion, a beauty hard to beat

 AEGD
But the heart has been corrupted by the changing power seat

(Chorus)

 AEGD
Will we stand and watch them taking our freedom away? (x2)

Our warriors are slandered and thrown into their jails
And kept from all their loved ones, in dungeons deep and stale
They say that, self defence is no offence until the law starts with their lies
They'll send you down for protecting your own, already guilty in their lying eyes

Our hearts are full of love and pride for England is our home
The hills and dales are in our souls and the forest ours to roam
But now we lie back in our cells and think of times gone by
We think back on our lives and homes and the girls who wait and cry






A D E G
variations - click chord images
Transpose chords:
Tuning:
Cool service:
View: Size:
A  A  A
Rating:
Layout:
  • Currently 0/5 Stars.
  • 1
  • 2
  • 3
  • 4
  • 5
 
Accuracy:
  • Currently 0/5 Stars.
  • 1
  • 2
  • 3
  • 4
  • 5
 
click stars to rate
Chordie recommends:
Learn to play songs at Jamplay.com with video guitar lessons
Songbook:
Login to add this song to your songbook
Support the artist
Preview/buy this song
MSN Music
Why this non-profit ad?

 
login to add comments/video/corrections