Guitar Tabs, Chords and Lyrics


I Am Warm And Powerful  Someone Still Loves You Boris Yeltsin

e|------------------------------------------------|


B|-9-9----------------------9-10-9---9------------|


G|-----9-9-11-11----------9--------9---9----------|

D|---------------10-10-11-------------------------|
A|------------------------------------------------|
E|------------------------------------------------|
e|------------------------------------------------|
B|-12-10-12-10--12--12---14--14-14----14----------|
G|---------------------------------14----14-------|
D|------------11--11---12--12---------------------|
A|------------------------------------------------|
E|------------------------------------------------|
[A]We've got am-[D]nesia from the [F#m]slightest [C#m]problems
[Bm]you start [C#m]shaking
and [D]you start [E]talking
A D F#m C#m \
takes more than working now to keep you from falling | /w fig. 1
'cause [Bm]work is st[C#m]arting and [D]things are f[E]alling          

[F#m]i'm in a r[C#madd9]eal good [D]place  [Bm]
to l[F#m]ight out w[C#madd9]ithout lea[D]ving [Bm]a trace
[F#m]you said i[C#madd9] was the [D]only on[Bm]e
A D* A D*(let ring)
now i just don't know whats going on


we don't [A]get out
D*
very much

we don't get out
very [E]much
im af[F#m]raid were loosing [C#m]touch with our [D]balled up little [E]crowd
when we [A]get out and get d[D]runk
and we [F#m]get high and don't [C#m]talk
we just [D]walk and walk and [C#m]walk untill we f[D]ind ourselves [E]alone
but at [F#m]least we've [E]got each [D]other    [A]

[A]it's not [D]so bad if you [F#m]can't re[C#m]member
[Bm]this is [C#m]just an ex[D]cuse for s[E]omething

A D F#m C#m \
we've got amnesia from the slightest problems | /w fig. 1
[Bm]you start [C#m]shaking and [D]you start [E]talking        


Lyrics
alone where i can't be you
alone where i can't be you
i don't think alot about you
i've been thinking alot about you

with: A, D, F#m, C#m, Bm, C#m, D, E x 2 /w fig. 1

End on A

Important: The song above is NOT stored on the Chordie server. The original song is hosted at www.guitaretab.com. Chordie works as a search engine and provides on-the-fly formatting. Chordie does not index songs against artists'/composers' will. To remove this song please click here.

Text color:
Chord color:
Chord grids: 
Font size:    
Page size: 

A Bm C#m C#madd9 D E F#m
variations - click chord images

Login - add to songbook

Transpose chords

Tuning

Rating click stars to rate

Layout
Accuracy

SHARE PAGE  




You need to log in to post comments