"yes"; ?> Let The Fingers Do The Walking by Sort Sol - guitar chords, guitar tabs and lyrics - chordie

Let The Fingers Do The Walking

Sort Sol

 DDsusAG
e|--2---2---3---2---0---0---3---3----|
B|---3---3---3---3---2---2---3---3---|
G|----2---2---2---2---2---2---0---0--|
D|-----------------------------------|
A|-----------------------------------|
E|-----------------------------------|


SECOND PART 2X

 BmAD
e|-----2------0------2-----2---------|
B|----3-3----2-2----3-3---3-3--------|
G|---4---4--2---2--2---2-2---2-------|
D|---------------0------0-----0------|
A|--2------0-------------------------|
E|-----------------------------------|    


THIRD PART

 GADDsusD
e|-----3------0------2----3----2-----|
B|----3-3----2-2----3-3----3----3----|
G|---0---0--2---2--2---2----2----2---|
D|---------------0------0------------|
A|---------0-------------------------|
E|--3--------------------------------|


 BmAD
e|-----2------0------2-----2---------|
B|----3-3----2-2----3-3---3-3--------|
G|---4---4--2---2--2---2-2---2-------|
D|---------------0------0-----0------|
A|--2------0-------------------------|
E|-----------------------------------|    


(CHORUS)
 BmGBmA
e|-----2------3------2------0--------|
B|----3-3----3-3----3-3----2-2-------|
G|---4---4--0---0--4---4--2---2------|
D|-----------------------------------|
A|--2-------------2------0-----------|
E|---------3-------------------------|

 BmGA
e|------2------3------0--------------|
B|-----3-3----3-3----2-2-------------|
G|----4---4--0---0--2---2------------|
D|-----------------------------------|
A|--2--------------0-----------------|
E|----------3------------------------|


ORDER:
INTRO
VERS (SECOND PART OF INTRO 2X, THIRD PART 1X, SECOND PART 1X)
CHORUS 2X
VERS (SECOND PART OF INTRO 2X, THIRD PART 1X, SECOND PART 1X)
FILL
VERS (SECOND PART OF INTRO 2X, THIRD PART 1X, SECOND PART 1X)
CHORUS 4X
END THE SONG WITH A SINGLE Bm











A Bm D Dsus G
variations - click chord images
Transpose chords:
Tuning:
Cool service:
View: Size:
A  A  A
Rating:
Layout:
  • Currently 3.1/5 Stars.
  • 1
  • 2
  • 3
  • 4
  • 5
 
Accuracy:
  • Currently 3/5 Stars.
  • 1
  • 2
  • 3
  • 4
  • 5
 
click stars to rate
Chordie recommends:
Learn how to play guitar at JamPlay.com
Songbook:
Login to add this song to your songbook
Support the artist
Preview/buy this song
MSN Music
Why this non-profit ad?

 
login to add comments/video/corrections