Chordie logo

Black Hole Sun Chorus   Soundgarden










Heres the chorus for Black Hole Sun.

IMPORTANT: You MUST use dropped-D tuning (tune your low E string down to D)

-------------------------------------------------------------------------
-------------------------------------------------------------------------
--------1-------------2-----------------------------7--------------------
------1---1---------0---0---------5-------3-------8---8------------------
----1-------1-----0-------0-----5---5---3---3---8-------8----------------
--1-----------1-0-----------0-5-------3-------8-----------8--------------
..sun   won't you come      and wash  away the rain          black hole

-------------------------------------------------------------------------
-------------------------------5--5----7---------------------------------
--------1-------------2--------5--5----7---------------------------------
------1---1---------0---0------5--5----7---------------------------------
----1-------1-----0-------0----3--3----5---------------------------------
--1-----------1-0-----------0--------------------------------------------
 sun    won't you come won't you.....

After the first chorus, I believe the barre chords in subsequent choruses
are C-A#-D (instead of C-D shown above).

Anyway, the above sounds close to my ears. However, I don't have a copy
of the album, so corrections are welcome. Anyone who has figured out the
verse chords, please post. I'm trying various triads around the octave 
fret but just can't seem to nail it.



Important: The song above is NOT stored on the Chordie server. The original song is hosted at www.guitaretab.com. Chordie works as a search engine and provides on-the-fly formatting. Chordie does not index songs against artists/composers will. To remove this song please click here.

This song is displayed as text-only. Transposing and tuning is only available for chordpro-songs.

Login - add to songbook

Rating click stars to rate

Layout
Accuracy

SHARE PAGE  

You need to log in to post comments