Guitar Tabs, Chords and Lyrics


Blanker   Staind



Blanker-Staind Feat. Maynard James Keenan

Tuning: Dropped-d (ebgdad)

this tab is about 85% correct.


Strumming pattern is not noted here, therefore this should be used as a
reference,and is not to be played exactly how it is written.

e|--------------0---0---0---------------0---0---0-|
b|--------------2---2---2---------------2---2---2-|
g|--------------3---3---3---------------3---3---3-|
d|7-7-7-7-7-7-3-0-3-0-3-0-0-0-0-0-0-0-3-0-3-0-3-0-|
a|7-7-7-7-7-7-3-3-3-3-3-3-0-0-0-0-0-0-3-3-3-3-3-3-|
d|7-7-7-7-7-7-3-3-3-3-3-3-0-0-0-0-0-0-3-3-3-3-3-3-|

This main riff is played throughout the entire song.
(Add distortion when necessary).

During the interlude, the main guitar is barely audible, but these would be
the chords being played:

e|-----------------------------|
b|-----------------------------|
g|-----------------------------|
d|7-7-2-2-3-3-3-10-10-10-2-2-2-|
a|7-7-2-2-3-3-3-10-10-10-2-2-2-|
d|7-7-2-2-3-3-3-10-10-10-2-2-2-|

The bit played over it is:

e|---------------------------------------|
b|---------------------------------------|
g|-9h10-9-9h10-9-9h10-10-10-10p9-9-9-9/7-|
d|---------------------------------------|
a|---------------------------------------|
d|---------------------------------------|



Important: The song above is NOT stored on the Chordie server. The original song is hosted at www.guitaretab.com. Chordie works as a search engine and provides on-the-fly formatting. Chordie does not index songs against artists'/composers' will. To remove this song please click here.

This song is displayed as text-only. Transposing and tuning is only available for chordpro-songs.

Login - add to songbook

Rating click stars to rate

Layout
Accuracy

SHARE PAGE  




You need to log in to post comments