Nothings Gonna Stop Us Now

Starting Line

 G#m-466444
F -   133211 or x-8-10-10-x-x

Dm - xx0231 or x57765
Bb - x13331
C - x32010

Intro:

Guitar 1: E--C#m--A--B (x2)


Guitar 2:
e|-------|-----------------------------------------|
B|-------|------------------------------2----------|
G|-----4-|--------1-4--1----1---------1----1-------|
D|-2h4---|-2--2-4---------4----2--2-4---------4--2-|
A|-------|-----------------------------------------|
E|-------|-----------------------------------------|

x4

Verse 1:
 EC#m
 Look into your eyes I see the paradise
 B
This world that I found is too
good to be true
 E
Standing here beside you
 C#m
 Want so much to give you
 B
This love in my heart that I'm feeling for you

Refrain 1:
 EC#m
   Let em say we're crazy I don't care about that
 A
   Put your hand in my hand baby
 B
 Don't ever look back
 EC#m
   Let the world around us just fall apart
 AD
   Baby, we can make it if we're heart to heart
B (hold)
and we can

Chorus 1:
 E
 build this dream together
 C#m
Standing strong forever
 AB
 Nothing's gonna stop us now
 E
And if this world runs out of lovers
 C#m
 We'll still have each other
 A
 Nothing's gonna stop us
 BD
 nothing's gonna stop us now whoa no!!!

Verse 2:
 E
 I'm so glad I found you
 C#m
 I'm not gonna lose you
 B
 Whatever it takes I will stay here with you
 E
 Take it to the good times
 C#m
 See it through the bad times
 B
 Whatever it takes is what I'm gonna do

Refrain 2:
 EC#m
   Let em say we're crazy What do they know?
 A
   Put your arms around me baby
 B
 Don't ever let go
 EC#m
   Let the world around us just fall apart
 AD
   Baby we can make it if we're heart to heart
B (hold)
and we can

(Repeat Chorus 1 except last line)

 B
 nothing's gonna stop us now

Bridge:
 EG#mA
 Ooh, All that I need is you
 F#mE
 All that I ever need
 G#mA
And all that I want to do
 F#mBC
Is hold you forever, ever and ever, hey

Solo: Modulate from E to F

Guitar 1: F--Dm--Bb--C (x2)


Guitar 2:
e|---------8--10----------------------------------|
B|-10-8-10--------10--------11--10----------------|
G|-------------------10--10---------12--10--------|
D|-----------------------------------------12--10-|
A|------------------------------------------------|
E|------------------------------------------------|

then
e|-8--8h10p8--10--15p13------------------|
B|---------------------------------------|
G|-----------------------5-7-10--12-10-9-|
D|-----------------------x-x--x---x--x-x-|
A|-----------------------3-5--8--10--8-7-|
E|---------------------------------------|


 C
And we can

Chorus 2:
 F
 build this dream together
 Dm
Standing strong forever
 BbC
 Nothing's gonna stop us now
 F
And if this world runs out of lovers
 Dm
 We'll still have each other
 BbC
 Nothing's gonna stop us now, whoa
(Nothing's gonna stop us now, oh no)

Outro: (While Kenny Sings the chorus 2)
Hey baby, I know, hey baby, nothing's gonna stop us
Hey baby, woo, nothing, hey baby
Nothing's gonna stop us now, yeah

Guitar 2: While doing outro
e|-----------------------------------------|
B|------------------------------3----------|
G|--------2-5--2----2---------2----2-------|
D|-3--3-5---------5----3--3-5---------5--3-|
A|-----------------------------------------|
E|-----------------------------------------|				



A B Bb C C#m D Dm E F F#m G#m
variations - click chord images
Transpose chords:
Tuning:
Cool service:
View: Size:
A  A  A
Rating:
Layout:
  • Currently 3.1/5 Stars.
  • 1
  • 2
  • 3
  • 4
  • 5
 
Accuracy:
  • Currently 3.4/5 Stars.
  • 1
  • 2
  • 3
  • 4
  • 5
 
click stars to rate
Chordie recommends:
Learn how to play guitar at JamPlay.com
Songbook:
Login to add this song to your songbook
Support the artist
Preview/buy this song
MSN Music
Why this non-profit ad?

 
login to add comments/video/corrections