Guitar Tabs, Chords and Lyrics


I Get Carried Away  George Strait


NOTE---------------------------------------------#


-----------------------#

[G]I don't take my whis[D]key to extremes[C]
G		     D		 C     >>>>>> Solo:.D-------0------
don't believe in chasing crazy dreams             G---0h3---3p0--

my [G]feet are planted firm[D]ly on the ground[C]
but darlin when you come around[D]
Chorus: Strum
I get carried a[G]way by the look by the [Bm]light in your eyes [Em]
before I ev[D]en realize[C] the ride I'm on[Em],  ba[C]by I'm long gone[D]
I get carried awa[G]y, nothin matters but being with[Bm] you[Em]
like a [D]feather flying high[C] up in the sky on a w[Em]indy day[C]
D(one strum) G D
I get carried away...
e-----------------------
B-----------------------
G---0---3---5---0-------
D--------------------3--
A--------------------
E--------------------

Verse 2: pick
It [G]might seem like an ordi[D]nary nigh[C]t
the [G]same old stars and the same[D] old moon up high[C]
but [G]when I see you stan[D]din at your door[C]
nothings ordinary anymore[D]
Chorus: Strum
I get carried a[G]way by the look by the [Bm]light in your eyes [Em]
before I ev[D]en realize[C] the ride I'm on[Em],  ba[C]by I'm long gone[D]
I get carried awa[G]y, nothin matters but being with[Bm] you[Em]
like a [D]feather flying high[C] up in the sky on a w[Em]indy day[C]
D(one strum) G D
I get carried away...
Solo: (not transcribed)
Chorus: Strum
I get carried a[G]way by the look by the [Bm]light in your eyes [Em]
before I ev[D]en realize[C] the ride I'm on[Em], ba[C]by I'm long gone[D]
I get carried awa[G]y, nothin matters but being with[Bm] you[Em]
like a [D]feather flying high[C] up in the sky on a w[Em]indy day[C]
D(one strum) G D
I get carried away...
e-----------------------
B-----------------------
G---0---3---5---0-------
D--------------------3--
A--------------------
E--------------------

    I get carried awa[G]y..[D].
Outro:
e---------------------------------------
B------0---3---5---0--------------------
G------------------------3---0----------
D---------------------------------4---0---} G(one strum)
A---------------------------------------
E----------------------------------- 

If anyone can come up with the small solo I left out of the song, please
e-mail it to me at "amardo@aol.com".
Thanks.
From Amardo@aol.com Fri Mar 21 11:40:57 1997
Date: Mon, 10 Mar 1997 23:41:11 -0500 (EST)
From: Amardo@aol.com
To: Guitar@olga.net
Subject: Chord, Lyrics, "I get carried away", George Strait

NOTE---------------------------------------------#

the #

research. #

-----------------------#
Song title: "I Get Carried Away"
Written by: George Strait
From the CD: Blue Clear Sky
Transcribed by: Aric H. Marderosian
Capo: 1st Fret
Verse 1: pick
[G]I don't take my whis[D]key to extremes[C]
G		     D		 C     >>>>>> Solo:.D-------0------
don't believe in chasing crazy dreams             G---0h3---3p0--

my [G]feet are planted firm[D]ly on the ground[C]
but darlin when you come around[D]
Chorus: Strum
I get carried a[G]way by the look by the [Bm]light in your eyes [Em]
before I ev[D]en realize[C] the ride I'm on[Em],  ba[C]by I'm long gone[D]
I get carried awa[G]y, nothin matters but being with[Bm] you[Em]
like a [D]feather flying high[C] up in the sky on a w[Em]indy day[C]
D(one strum) G D
I get carried away...
e-----------------------
B-----------------------
G---0---3---5---0-------
D--------------------3--
A--------------------
E--------------------

Verse 2: pick
It [G]might seem like an ordi[D]nary nigh[C]t
the [G]same old stars and the same[D] old moon up high[C]
but [G]when I see you stan[D]din at your door[C]
nothings ordinary anymore[D]
Chorus: Strum
I get carried a[G]way by the look by the [Bm]light in your eyes [Em]
before I ev[D]en realize[C] the ride I'm on[Em],  ba[C]by I'm long gone[D]
I get carried awa[G]y, nothin matters but being with[Bm] you[Em]
like a [D]feather flying high[C] up in the sky on a w[Em]indy day[C]
D(one strum) G D
I get carried away...
Solo: (not transcribed)
Chorus: Strum
I get carried a[G]way by the look by the [Bm]light in your eyes [Em]
before I ev[D]en realize[C] the ride I'm on[Em], ba[C]by I'm long gone[D]
I get carried awa[G]y, nothin matters but being with[Bm] you[Em]
like a [D]feather flying high[C] up in the sky on a w[Em]indy day[C]
D(one strum) G D
I get carried away...
e-----------------------
B-----------------------
G---0---3---5---0-------
D--------------------3--
A--------------------
E--------------------

    I get carried awa[G]y..[D].
Outro:
e---------------------------------------
B------0---3---5---0--------------------
G------------------------3---0----------
D---------------------------------4---0---} G(one strum)
A---------------------------------------
E----------------------------------- 

If anyone can come up with the small solo I left out of the song, please
e-mail it to me. Thanks!!!
Address: amardo@aol.com

Important: The song above is NOT stored on the Chordie server. The original song is hosted at www.guitaretab.com. Chordie works as a search engine and provides on-the-fly formatting. Chordie does not index songs against artists'/composers' will. To remove this song please click here.

Text color:
Chord color:
Chord grids: 
Font size:    
Page size: 

Bm C D Em G
variations - click chord images

Login - add to songbook

Transpose chords

Tuning

Rating click stars to rate

Layout
Accuracy

SHARE PAGE  




You need to log in to post comments