Guitar Tabs, Chords and Lyrics


Come Sail Away   Styx



-----------------------------------------------------------------------------
	              Come Sail Away (Intro) – Styx
-----------------------------------------------------------------------------
Tabbed by: Josh G. Herder
Email:strat_man70@yahoo.com

This is a good finger picking piece for this song. It takes a lot of work but after you 
mastered it you can add it to what you already know of this song.

Tuning:EADGBe

|----------------------------------------------------------------------------|
|-------------------------------------------3--------1-----------------------|
|--------0------0------0------0----------------------------------------------|
|-------------------------------------2---------2--------2--------2----------|
|----3------3------3------3-------3--------------------------3--------5------|
|----------------------------------------------------------------------------|

|----------------------------------------------------------------------------|
|---------3------------------------------------------------------------------|
|---------------------5-----------------------------7---------5--------------|
|-----3--------3------------3---------3--------5---------5---------5---------|
|---------------------------------5--------7----------------------------7----|
|----------------------------------------------------------------------------|

|----------------------------------------------------------------------------|
|----------------------------------------------------------------------------|
|-----------------------3------------5--------------5----4-----2-----4----5--|
|------5---------3-----------3---------------3-------------------------------|
|-----------5----------------------------------------------------------------|
|----------------------------------------------------------------------------|

|----------------------------------------------------------------------------|
|----------------------------------------------------------------------------|
|----------------------------------------------------------------------------|
|----------------------------------------------------------------------------|
|----3----3-------2--------2---------3-----2----0----2---3-------------------|


Important: The song above is NOT stored on the Chordie server. The original song is hosted at www.guitaretab.com. Chordie works as a search engine and provides on-the-fly formatting. Chordie does not index songs against artists/composers will. To remove this song please click here.

This song is displayed as text-only. Transposing and tuning is only available for chordpro-songs.

Login - add to songbook

Rating click stars to rate

Layout
Accuracy

SHARE PAGE  




You need to log in to post comments