Chordie logo


Green Eyed Lady   Sugarloaf



This Tab By Me The Sage of Twilight is For Green Eyed Lady by Sugarloaf 
enjoy :)

Intro:
E|------------------------------------------------------------------------|
B|------------------------------------------------------------------------|
G|------------------------------------------------------------------------|
D|-------------0-2-------------------0-2-------------------0-2--00--------|
A|-------0-1-2-----------------0-1-2-----------------0-1-2-----------00---|
E|-2-3-4-----------------2-3-4-----------0--0--2-3-4---------------3----0-|

Verse*:6 TIMES
E|-------------------------------------------------------------------------|
B|-------------------------------------------------------------------------|
G|-------------------------------------------------------------------------|
D|-------5------------------5------------------5---------------------------|
A|----5-----5------------4-----4------------3-----3------------------------|
E|-0------------5H7---0------------5H7---0---------5H7--0-6-7-0-4-5-2H32H3-|

Organ Solo:
E|----------------------|
B|----------------------|
G|----------------------|
D|----------------------|
A|----------------------|
E|-0-6-7-0-4-5--2H32H3--|

 last time
E|------------------|
B|------------------|
G|------------------|
D|------------------|
A|------------------|
E|-0-6-7-0-4-5--2-3-|


Bridge:
E|-------------------------------------|
B|-------------------------------------|
G|-------------------------------------|
D|-------------------------------------|
A|-------------------------------------|
E|-0-6-7-0-4-5-2-3-0-6-7-0-4-5--2H32H3-|

Guitar Solo:
E|----------------------|
B|----------------------|
G|----------------------|
D|----------------------| once
A|----------------------|
E|-0-6-7-0-4-5--2H32H3--|

E|------------------------|
B|------------------------|
G|------------------------|
D|------------------------| 3 times
A|------------------------|
E|-0-6-7-0-4H54H5-2H32H3--|

E|------------------|
B|------------------|
G|------------------|
D|------------------| 2 times
A|------------------|
E|-0-6-7-0-4-5--2-3-|

Interlude:
E|-----------------------------------------------------------------|
B|-----------------------------------------------------------------|
G|-----------------------------------------------------------------|
D|--------------5------------------5-------------------------------|
A|-----------4-----4------------3-----3----------------------------|
E|---6-7--0------------5H7---0-----------5H7---0-6-7-0-4-5--2H32H3-|


Repeat Verse* Till the Song is Done..........


Important: The song above is NOT stored on the Chordie server. The original song is hosted at www.guitaretab.com. Chordie works as a search engine and provides on-the-fly formatting. Chordie does not index songs against artists/composers will. To remove this song please click here.

This song is displayed as text-only. Transposing and tuning is only available for chordpro-songs.

Login - add to songbook

Rating click stars to rate

Layout
Accuracy

SHARE PAGE  




You need to log in to post comments