"yes"; ?> Hellbent by Superdrag - guitar chords, guitar tabs and lyrics - chordie

Hellbent

Superdrag

 EBC#B
 Yeah            
 CCAA
 Yeah            
 EEB
 Yeah      

verse riff:

A ---7--6--4-6---


verse:

 E
I was hellbent
 C#mG#
To burn up the world
 C#mG#
With a beautiful girl
F# riff
I created

Then my god said
Take a powerful pill
Like a fool on the hill
And I waited

bridge:

 Am7E
 Everybody wants to hang around   
 Am7E
 Everybody wants to bring me down   
 F#G#
 This simple prayer
 C#BBb
 I say without a sound
 AB
 Get me off the ground
E riff
Uh-huh

E riff:

E E*
e -------------------------|
B ---9---9--9--9---9--9----|
G ---9---9--9--9---9--9----|
D ---9---9--9--9---9-10----|
A ---7---7--7--7---7--7----|
E -------------------------|


verse:

Man, I lost it
I was losing my mind
I was dying to find
A salvation

But I'm changing
I am making her mine
And I'm trying to be a
sensation

bridge:

Everybody wants to hang around
Everybody wants to bring me down
This simple prayer
I say without a sound
Get me off the ground
Uh-huh

E riff
Yeah

super rock star ending:

 E/(F#EE
e --------------------------------------|
B -------9---9---9-------9-------9\-----|
G -------9---9---9-------9-------9\-----|
D -------9---9---9-------9-------9\-----|
A ----7b(9)b(9)b(9)------7-------7\-----|
E --------------------------------------|


chords:

Am7: 575555

Songs by John Davis. Arranged by Superdrag.
Lyrics courtesy of J.Davis: www.superdrag.com/lyrics/head_lyr.html
1998 Warner-Tamerlane/Flame On Music. c1998 Elektra Entertainment Group.


A Am7 B Bb C C# C#m E F# G#
variations - click chord images
Transpose chords:
Tuning:
Cool service:
View: Size:
A  A  A
Rating:
Layout:
  • Currently 0/5 Stars.
  • 1
  • 2
  • 3
  • 4
  • 5
 
Accuracy:
  • Currently 0/5 Stars.
  • 1
  • 2
  • 3
  • 4
  • 5
 
click stars to rate
Chordie recommends:
Get acoustic guitar lessons and electric guitar lessons at JamPlay.com
Songbook:
Login to add this song to your songbook
Support the artist
Preview/buy this song
MSN Music
Why this non-profit ad?

 
login to add comments/video/corrections