Guitar Tabs, Chords and Lyrics


Garmonbozia  Superdrag

e|-0-0-0-0-0-0-0-0-0-0-0-0-0-0-0-0-0-0-0-0-0-0--0--0-0-0-0-0-0-0-0-0-|


B|-5-5-5-5-5-5-5-5-4-4-5-0-0-0-5-0-4-4-5-0-0-0--2--2-2-2-2-2-2-2-2-2-|


G|---------------------------------------------------2-2-2-2-2-2-2-2-|

D|-------------------------------------------------------------------|
A|-------------------------------------------------------------------|
E|-------------------------------------------------------------------|
e|-0---0---0---0---0---0---0---0---0---0---0----0----0---0---0---0---|
B|-0---0---0---0---0---0---0---0---0---0---0----0----0---0---0---0---|
G|-1---1\-/1---1---2---2\-/2---2---4---4\-/4----4----6---6\-/6---6---|
D|-2---2\-/2---2---4---4\-/4---4---6---6\-/6----6----7---7\-/7---7---|
A|-------------------------------------------------------------------|
E|-------------------------------------------------------------------|
[bass]                                                                             
G|-------------------------------------------------------------------|
D|-------------------------------------------------------------------|
A|-------------------------------------------------------------------|
E|-0-0-0-0-0-0-4-2-2-2-2-2-2-2-2-2-4-4-5-5-7-9-11-12-5-5-5-5-5-5-5-5-|

[E]so[F#m]mebody screams and i'm gushing my load
[G#m]ever[A]yone knows the score
[E]dr[F#m]opped from a dream i don't know what i know
[G#m]gett[A]ing my feet to the floor
[E]i'[F#m]m ti[G#m]red of dying here alone
[A]but you can set me free
[E]i'[F#m]m wi[G#m]red and lying here too stoned
[A]to know what i could be

Important: The song above is NOT stored on the Chordie server. The original song is hosted at www.guitaretab.com. Chordie works as a search engine and provides on-the-fly formatting. Chordie does not index songs against artists'/composers' will. To remove this song please click here.

Text color:
Chord color:
Chord grids: 
Font size:    
Page size: 

A E F#m G#m
variations - click chord images

Login - add to songbook

Transpose chords

Tuning

Rating click stars to rate

Layout
Accuracy

SHARE PAGE  




You need to log in to post comments