Guitar Tabs, Chords and Lyrics


Found A Job Stop Making Sense  Talking Heads

      [A7]S S S S S S S S S S S S S S S S
|-----x-x-x-x-3---x-x-x-x-x-x-3---x-x-|
|-----x-x-x-x-2---x-x-x-x-x-x-2---x-x-|
|-4:--x-x-x-x-2---x-x-x-x-x-x-2---x-x-|
|-4:--x-x-x-x-2---x-x-x-x-x-x-2---x-x-|
|-----x-x-x-x-0---x-x-x-x-x-x-0---x-x-|
|-------------------------------------|


S S S S S S S S S S S S S S S S S S S S S S S S S S S S S S S S
|-x-x-x-x-3---x-x-x-x-x-x-3---x-x-|-x-x-x-x-3---x-x-x-x-x-x-3---x-x-|
|-x-x-x-x-2---x-x-x-x-x-x-2---x-x-|-x-x-x-x-2---x-x-x-x-x-x-2---x-x-|
|-x-x-x-x-2---x-x-x-x-x-x-2---x-x-|-x-x-x-x-2---x-x-x-x-x-x-2---x-x-|
|-x-x-x-x-2---x-x-x-x-x-x-2---x-x-|-x-x-x-x-2---x-x-x-x-x-x-2---x-x-|
|-x-x-x-x-0---x-x-x-x-x-x-0---x-x-|-x-x-x-x-0---x-x-x-x-x-x-0---x-x-|
|---------------------------------|---------------------------------|


(Don't play the next four measures until the second line in the verse!)

S S S S S S S S S S S S S S S S S S S S S S S S S S S S S S S S
|-x-x-x-x-3---x-x-x-x-x-x-3---x-x-|-x-x-x-x-3---x-x-x-x-x-x-3---x-x-|
|-x-x-x-x-2---x-x-x-x-x-x-2---x-x-|-x-x-x-x-2---x-x-x-x-x-x-2---x-x-|
|-x-x-x-x-2---x-x-x-x-x-x-2---x-x-|-x-x-x-x-2---x-x-x-x-x-x-2---x-x-|
|-x-x-x-x-2---x-x-x-x-x-x-2---x-x-|-x-x-x-x-2---x-x-x-x-x-x-2---x-x-|
|-x-x-x-x-0---x-x-x-x-x-x-0---x-x-|-x-x-x-x-0---x-x-x-x-x-x-0---x-x-|
|---------------------------------|---------------------------------|


S S S S S S S S S S S S S S S S S S S S S S S S
|-x-x-x-x-3---x-x-x-x-x-x-3---x-x-|----x-x-x-x-3---x-x-|
|-x-x-x-x-2---x-x-x-x-x-x-2---x-x-|----x-x-x-x-2---x-x-|
|-x-x-x-x-2---x-x-x-x-x-x-2---x-x-|-2:-x-x-x-x-2---x-x-|
|-x-x-x-x-2---x-x-x-x-x-x-2---x-x-|-4:-x-x-x-x-2---x-x-|
|-x-x-x-x-0---x-x-x-x-x-x-0---x-x-|----x-x-x-x-0---x-x-|
|---------------------------------|--------------------|


  [D7]S S S S S S S S S S S S S S S S   S S S S S S S S S S S S S S S S
|-x-x-x-x-8---x-x-x-x-x-x-8---x-x-|-x-x-x-x-8---x-x-x-x-x-x-8---x-x---||
|-x-x-x-x-7---x-x-x-x-x-x-7---x-x-|-x-x-x-x-7---x-x-x-x-x-x-7---x-x---||
|-x-x-x-x-7---x-x-x-x-x-x-7---x-x-|-x-x-x-x-7---x-x-x-x-x-x-7---x-x--o||
|-x-x-x-x-7---x-x-x-x-x-x-7---x-x-|-x-x-x-x-7---x-x-x-x-x-x-7---x-x--o||
|-x-x-x-x-0---x-x-x-x-x-x-0---x-x-|-x-x-x-x-0---x-x-x-x-x-x-0---x-x---||
|---------------------------------|-----------------------------------||


Chorus (Studio):

[E]Judy’s [A]in the [E]bed-[G]room, in-[E]venting [A]situ-[E]a-[G]tions.
[E]Bob is [D]on the [E]street to-[D]day, [E]scouting [A]up lo-[E]ca-[G]tions.
[E]They’ve en-[G]listed [E]all their [G]family.
[E]They’ve en-[G]listed [E]all their [F#]friends.
It [B]helped saved [D]their re-[B]lation-[D]ship,
And [B]made it [D]work [E]again.

Chorus (Stop Making Sense):
[E]Judy’s [A]in the [E]bed-[G]room, in-[E]venting [A]situ-[E]a-[G]tions.
[E]Bob is [A]on the [E]street to-[D]day, [E]scouting [A]up lo-[E]ca-[G]tions.
[E]They’ve en-[A]listed [E]all their [A]family.
[A]They’ve en-[D]listed [A]all their [B]friends.
It [B]helped saved [D]their re-[B]lation-[D]ship,
And [B]made it [D]work [E7]again.


Outro: verse pattern.

In the live version, guitar plays the outro melody:

(play staccato 2x, then let notes ring)

H H Q Q Q Q H H H H Q Q
||-----------------|----3--5--3--|-----------|------3----|-----5--3--|
||-------2----3----|-5-----------|-2----3----|-5---------|-----------|
||o--4:------------|-------------|-----------|-----------|-2:--------|
||o--4:------------|-------------|-----------|-----------|-4:--------|
||-----------------|-------------|-----------|-----------|-----------|
||-----------------|-------------|-----------|-----------|-----------|


W +H Q Q
|------------|--------5--3---||
|-----3------|--(3)----------||
|-4:---------|--------------o||
|-4:---------|--------------o||
|------------|---------------||
|------------|---------------|| play 4x				


Important: The song above is NOT stored on the Chordie server. The original song is hosted at www.guitaretab.com. Chordie works as a search engine and provides on-the-fly formatting. Chordie does not index songs against artists'/composers' will. To remove this song please click here.

Text color:
Chord color:
Chord grids: 
Font size:    
Page size: 

A A7 B D D7 E E7 F# G
variations - click chord images

Login - add to songbook

Transpose chords

Tuning

Rating click stars to rate

Layout
Accuracy

SHARE PAGE  




You need to log in to post comments