Td Time

Tenacious D

E------------------------------------------------: 

B------------------------------------------------: 

G-------------------------3-3-3-2-2-2-h-3-p-2-0--: 

D-------------------------3-3-3-3-3-3---3---3-3--: 

A--3-3-3-2-2-2-h-3-p-2-0-------------------------: 

E--3-3-3-3-3-3---3---3-3-------------------------: 

E---------------------------------------------------: 

B---------------------------------------------------: 

G--7-7-7-9-9-9-7-7-7-12-11-9--5-5-5-7-7-7--7-5-4-2--: 

D--0-0-0-0-0-0-0-0-0--0--0-0--0-0-0-0-0-0--0-0-0-0--: 

A---------------------------------------------------: 

E---------------------------------------------------: 


 DC
 we ride with kings on mighty steeds across the devil's plain
 DCG
 we've walked with g's on satan's cross he did not die in vain no
 D
 kyle's fingers be silver and jack's voice then be gold
 C
 so lest you think we're vain
 DCG
 we know it's open mic night but we don't care tenacious d we reign
THE SUPREME PART:
 DCGCDCGCD
 we reign supreme oh god burrito supreme and a chicken supreme
 CGCDCGCD
 annachsupreme supreeeeeeemmmmmeeeeeee yeahhh
 CGCD
 aaaaaaaaaeeeeeeeeaeaaaaahhhhhhhh go now go now kyle supreme
























C D G
variations - click chord images
Transpose chords:
Tuning:
Cool service:
View: Size:
A  A  A
Rating:
Layout:
  • Currently 2.9/5 Stars.
  • 1
  • 2
  • 3
  • 4
  • 5
 
Accuracy:
  • Currently 3.6/5 Stars.
  • 1
  • 2
  • 3
  • 4
  • 5
 
click stars to rate
Chordie recommends:
Learn how to play guitar at JamPlay.com
Songbook:
Login to add this song to your songbook
Support the artist
Preview/buy this song
MSN Music
Why this non-profit ad?

 
login to add comments/video/corrections