Guitar Tabs, Chords and Lyrics


Strange Affair  Richard Thompson

e||--------5---------------------------------------------------|


B||-7~~~-7---7-5-7~~-------------------------------------------|


G||------------------4H6P4-2~~--2H4P2--------------------------|

D||-----------------------------------4~~--2H4P2---------------|
A||----------------------------------------------2-0-LET RING--|
E||------------------------------------------------------------|
e||----------------|---------------|-------------------------|
B||----------------|---------------|----------------2--------|
G||----------------|---------------|----------------2--1-----|
D||--4--2---2--4---|-4--2---2--4~~-|-4--2---2--4~---2--2-----|
A||-------4--------|------4--------|------4------------2-----|
E||----------------|---------------|-------------------------|
   [F#m]                                                 [A]   [E]  [F#m]                                      
e||----------------|---------------|----------------------2---||
B||----------------|---------------|----------------2-----2---||
G||----------------|---------------|----------------2--1--2---||
D||--4--2---2--4---|-4--2---2--4~~-|-4--2---2--4~---2--2--4---||
A||-------4--------|------4--------|------4------------2--4---||
E||----------------|---------------|----------------------2---||

--First Verse--

[F#m]I had enough of this strange affair. Tried so hard but we [A]got [E]nowhere.
[F#m]You drag me down, what you doing it for? I can't handle it [A]any[E]more.
[F#m]Why, oh why won't you hear me? This information is [A]yours for [E]free.
F#m A F#m Stop
I'm telling you like I know I should. I'm hurt, but you can't see the blood.

--Chorus--

C#m7 C#m C#m7 C#m B A E B NOTE: Alternate between the sharp minor 7th
Well, I must have been mad. Went to the doctor, I felt so sad. and the sharp
chords just by
C#m7 C#m C#m7 C#m B A E B hammering on your pinkie on the 6th
Yeah, I must be insane. You turned me over again and again. fret g string.

--Riff One--

--Second Verse--

[F#m]Had enough of this strange affair. Plain to see that you [A]just don't[E] care.
[F#m]You been fooling around for too long. That ain't the way to be [A]carrying [E]on.
[F#m]Why, oh why don't it matter to you? Don't you know what you're [A]putting me [E]through?
F#m A F#m Stop
But it's over, tears I have cried. This strange affair is a thorn in my side.

--Chorus--

[C#m7]Well, [C#m]I must [C#m7]have been[C#m] mad. [B]   [A]   Went to the doctor, I [E]felt so [B]sad.
[C#m7]Yeah, [C#m]I must [C#m7]be in[C#m]sane. [B]   [A]  You turned me over [E]again and [B]again.

--Solo One (Twin Lead)--

(Chords are the same as in the chorus)

e||---------------------------------------7------9-7------12-9-7---7~--|
B||-------------5-7-7/9\7~~-------5-7-7/9---9~~------9~----------9-----|
G||--4h6~~--4-6---------------4-6--------------------------------------|
D||--------------------------------------------------------------------|
A||--------------------------------------------------------------------|
E||--------------------------------------------------------------------|
e||---------------------------------------7------9-7-------19^-17------------||
B||-------------5-7-7/9\7~~-------5-7-7/9---9~~------9~-----------19-17-19~~-||
G||--4h6~~--4-6---------------4-6--------------------------------------------||
D||--------------------------------------------------------------------------||
A||--------------------------------------------------------------------------||
E||--------------------------------------------------------------------------||


--Solo--

Chords go back to the ones in the verse.

--Third Verse--

[F#m]Had enough of this strange affair. I was a victim of a [A]love so [E]rare.
[F#m]Told me lies and betrayed my trust. Feel like a sucker with a [A]teenage [E]crush.
[F#m]Why, oh why keep leading me on? Don't you know you been [A]doing me [E]wrong?
F#m A F#m Stop
Your best friend confirmed my worst fears. Should have known it had to end in tears.

--Chorus--

[C#m7]Well, [C#m]I must [C#m7]have been[C#m] mad. [B]   [A]   Went to the doctor, I [E]felt so [B]sad.
[C#m7]Yeah, [C#m]I must [C#m7]be in[C#m]sane. [B]   [A]  You turned me over [E]again and [B]again.

Important: The song above is NOT stored on the Chordie server. The original song is hosted at www.guitaretab.com. Chordie works as a search engine and provides on-the-fly formatting. Chordie does not index songs against artists'/composers' will. To remove this song please click here.

Text color:
Chord color:
Chord grids: 
Font size:    
Page size: 

A B C#m C#m7 E F#m
variations - click chord images

Login - add to songbook

Transpose chords

Tuning

Rating click stars to rate

Layout
Accuracy

SHARE PAGE  




You need to log in to post comments