Chordie logo

Its Never Too Late   Three Days Grace



Artist : Three Days Grace
Album  : One-X
Song   : Never Too Late
Tuning : Drop C
Tab: I.A.
Moderately Q=147  
4/4

This tab is for Guitar One Only

Intro
|--------------|------------------|    |---------------|
|--------------|------------------|    |---------------|
|--------------|------------------|    |---------------|
|------10------|--0-10--8--7-0----|    |------10---10--|
|----8----8----|------------------|    |----7----7-10--|
|-8---------0--|------------------|Rx3 |-7---------10--| 
Repeat whole intro 

Verse
|--------------|------------------|    |---------------|
|--------------|------------------|    |---------------|
|--------------|------------------|    |---------------|
|------10------|--0-10--8--7-0----|    |------10---10--|
|----8----8----|------------------|    |----7----7-10--|
|-8---------0--|------------------|Rx3 |-7---------10--|
Repeat Whole Verse

Chorus
||------------------|-----------------------|
||o-----------------|-----------------------|
||------------------|-----------------------|
||---12---12-12--8--|--(8)-8-(8)--8-(8)-8-8-|
||o--12---12-12--8--|--(8)-8-(8)--8-(8)-8-8-|
||---12---12-12--8--|--(8)-8-(8)--8-(8)-8-8-|

|-----------------|------------------------|
|-----------------|------------------------|
|-----------------|------------------------|
|--7----7-7---10--|-(10)-10----10--10-10---|
|--7----7-7---10--|-(10)-10----10--10-10---|
|--7----7-7---10--|-(10)-10----10--10-10---|

Repeat Verse
Repeat Chorus

Chorus Cont.

|-------------------------|----------------------------|
|-------------------------|----------------------------|
|-------------------------|----------------------------|
|--8--8--8--8--------0----|-(0)--0-(0)-----0-(0)--0--0-|
|--8--8--8--8--------0----|-(0)--0-(0)-----0-(0)--0--0-|
|--8--8--8--8--------0----|-(0)--0-(0)-----0-(0)--0--0-|

|-------------------------|---------------------------|
|-------------------------|---------------------------|
|-------------------------|---------------------------|
|--7--7--7--7-------10----|-(10)-10-10-10-10-10-10-10-|
|--7--7--7--7-------10----|-(10)-10-10-10-10-10-10-10-|
|--7--7--7--7-------10----|-(10)-10-10-10-10-10-10-10-|

|-------------|-------------|-----------------|---------|
|-------------|-------------|-----------------|---------|
|-------------|-------------|-----------------|---------|
|-8--8--8--8--|-8--8--8--8--|-7-7-7-7---x-10--|-(10)----|
|-8--8--8--8--|-8--8--8--8--|-7-7-7-7---x-10--|-(10)----|
|-8--8--8--8--|-8--8--8--8--|-7-7-7-7---x-10--|-(10)----|


Guitar Break
                Let Ring                  Let Ring
|--------------------|    |------------------|
|--------------------|    |------------------|
|--------------------|    |------------------|
|------10-------12---|    |------10----------|
|----8----8----------|    |----7----7--------|
|-8------------------|Rx3 |-7-------------0--|


Repeat Chorus

Outro
Verse                                              Let Fade
|--------------|------------------|    |---------------|
|--------------|------------------|    |---------------|
|--------------|------------------|    |---------------|
|------10------|--0-10--8--7-0----|    |------10---10--|
|----8----8----|------------------|    |----7----7-10--|
|-8---------0--|------------------|Rx3 |-7---------10--|

-----------------------------------------------------------------------------
 


Important: The song above is NOT stored on the Chordie server. The original song is hosted at www.guitaretab.com. Chordie works as a search engine and provides on-the-fly formatting. Chordie does not index songs against artists/composers will. To remove this song please click here.

This song is displayed as text-only. Transposing and tuning is only available for chordpro-songs.

Login - add to songbook

Rating click stars to rate

Layout
Accuracy

SHARE PAGE  

You need to log in to post comments