Chordie logo

Belive Its True  Tuatha De Danann

G|--2--2--2--2--0--0--0--0--5--5--5--5--4--4--4--4--|


D|----2--2--2--2--0--0--0--0--5--5--5--5--5--5--5--5|


A|--0-----------------------3-----------------------|


E|-----------------3--------------------3-----------|




   [Am]                    [G]                 [C]                               
e|------------------------------------------------0--------0----
B|-------0-0h1-0--------------------------------1----3-1-3---3--
G|-----2---------2---------0-2-2h4-2-0-------0------------------
D|---2-------------2-----0-----------------2--------------------
A|-0------------------------------------3-----------------------
E|---------------------3----------------------------------------



[Am] Into the Rhythm of the[G] drums
[C] dancing in the woods  [G]
[Am] and look around
[G] the magical faeries
[C] old green dwarves
and red[G] mushrooms
[Am] Try to belive and under[G]stand
there's noth[C]ing you can do
[G]belive it's true
A ri[Am]ver of wine
refre[G]shes our eyes
calli[C]ng us to rock o[G]ur souls

Solo:
2x(Dm Am G Am F Am C Am C G)
2x(Am G C G) Am 2x(Am G C F G C N Am)

obs: N = todas as cordas soltas
na ultima parte Am G C,C N são tocadas fora do ritmo (1x só)

[Am] Into the Rhythm of the[G] drums
[C] dancing in the woods  [G]
[Am] and look around
[G] the magical faeries
[C] old green dwarves
and red[G] mushrooms              [Am]   [G]  [C]  [F]  [G]
C N Am
Belive it's true!
Bel[Am]ive [G]it's t[C]rue!
[F]old green dwarves
G C N Am
and the red mushrooms
Solo:G C Am F G Am G C Am F G Dm C F Dm Bb C Am G C G
Am G C Am C G 4x(Am G)

[Am] Even you still laugh[G]ing at me
you thi[C]ng that I'm the fool
The fool [G]is you!
[Am]So I can tell
I le[G]ave my words
There's nothing[C] you can do
Beli[G]ve it's true!

2x(Dm Am G Am F Am C Am C G)
C N Am
Belive it's true!
Bel[Am]ive [G]it's t[C]rue!
[F]old green dwarves
and the red mus[G]hrooms
C N Am Am G C G

Important: The song above is NOT stored on the Chordie server. The original song is hosted at www.guitaretab.com. Chordie works as a search engine and provides on-the-fly formatting. Chordie does not index songs against artists/composers will. To remove this song please click here.

Am C F G
variations - click chord images

Login - add to songbook

Transpose chords

Tuning

Rating click stars to rate

Layout
Accuracy

SHARE PAGE  

You need to log in to post comments