Chordie logo

Final Execution Armageddon   Unseen



I'm pretty sure all of the notes are right on this song
but you can try changing all of the E's(022---) to the 
next octave up and see how it sounds(-799--).  I 
couldn't figure out which one sounded better because
they both sounded pretty good.  Also there are a bunch 
of extra notes in the background that i couldn't figure
out, you could probably just strum any open strings you
have and it might sound some what like it.


Intro Guitar 1
Part 1
E|------------------------------------------|
B|------------------------------------------|
G|-----55---8887-875------55---1010109-10109|
D|7-77---77----------7-77---77--------------|x1 1/2
A|------------------------------------------|
E|------------------------------------------|
(the "10's" are ten's)

Intro Guitar 2
Part 1
E|-------------------------------------------|
B|-------------------------------------------|
G|-----------------------------------------3-|
D|-------------------2~--------------------3-|
A|-------------------2~--------------------1-|
E|-------------------0~----------------------|

Intro Guitars 1 + 2
Part 2
E|----------------|
B|----------------|
G|3-33-33-2-22-22-|
D|3-33-33-2-22-22-|
A|1-11-11-0-00-00-|
E|----------------|
    .  .    .  .

Intro Guitar 1
Part 3
E|---------------------------------------|
B|---------------------------------------|
G|-----5555-8887-87------5555-1010109-109|
D|7-77--------------7-77-----------------|x1 1/2
A|---------------------------------------|
E|---------------------------------------|
(the "10's" are ten's)

Intro Guitar 2
Part 3
E|-------------------------------------------|
B|-------------------------------------------|
G|-------------------3-----------------------|
D|2~-----------------3---------------------2~|
A|2~-----------------1---------------------2~|
E|0~---------------------------------------0~|

Intro Guitars 1 + 2
Part 4
E|----------------|
B|----------------|
G|3-33-33-2-22-22-|
D|3-33-33-2-22-22-|
A|1-11-11-0-00-00-|
E|----------------|
    .  .    .  .

Intro Part 5
Guitar 1
E|-----------------|  |-----------|
B|-----------------|  |-----------|
G|---------3332-222|  |---------3~|
D|2-2-2222-3332-222|x3|2-2-2222-3~|
A|2-2-2222-1110-000|  |2-2-2222-1~|
E|0-0-0000---------|  |0-0-0000---|

Guitar 2
E|------------------------------|  |------------------|
B|------------------------------|  |------------------|
G|---------------15151514-141414|  |---------------15~|
D|14-14-14141414--x-x-x-x--x-x-x|x3|14-14-14141414--x~|
A|14-14-14141414-13131312-121212|  |14-14-14141414-13~|
E|12-12-12121212----------------|  |12-12-12121212----|


Verse
Both Guitars
E|---------------------|  |-------------------|
B|---------------------|  |-------------------|
G|------3-22-------5-44|  |-----3-22------5-44|
D|2-2-2-3-22-2-2-2-5-44|x2|22-2-3-22-22-2-5-44|x2
A|2-2-2-1-00-2-2-2-3-22|  |22-2-1-00-22-2-3-22|
E|0-0-0------0-0-0-----|  |00-0------00-0-----|
                           ..        ..

Chorus
Both Guitars
E|------------------|
B|------------------|
G|---------5555-4444|
D|22222222-5555-4444|x4
A|22222222-3333-2222|
E|00000000----------|


Repeat Intro Part 5


Repeat Verse


Repeat Chorus



Bridge x2
Both Guitars
E|-------------------------|
B|-------------------------|
G|99-9-99-9-1010-10-1010-10|
D|99-9-99-9-1010-10-1010-10|
A|77-7-77-7--8-8--8--8-8--8|
E|-------------------------|
  ..   ..    . .     . .

E|-------------------------|
B|-------------------------|
G|99-9-99-9-1212-12-1010-10|
D|99-9-99-9-1212-12-1010-10|
A|77-7-77-7-1010-10--8-8--8|
E|-------------------------|
  ..   ..    . .     . .

E|-------------------------|
B|-------------------------|
G|99-9-99-9-1010-10-1010-10|
D|99-9-99-9-1010-10-1010-10|
A|77-7-77-7--8-8--8--8-8--8|
E|-------------------------|
  ..   ..    . .     . .

E|-------------------|
B|-------------------|
G|99-9-99-9----------|
D|99-9-99-9-55-5-33-3|
A|77-7-77-7-55-5-33-3|
E|----------33-3-11-1|
  ..   ..   ..   ..


Repeat Chorus x2


Ending
E|-----------------------|
B|-----------------------|
G|---------------------9~|
D|10-1010-1010-9-99-99-9~|
A|10-1010-1010-9-99-99-7~|
E|-8--8-8--8-8-7-77-77---|


Important: The song above is NOT stored on the Chordie server. The original song is hosted at www.guitaretab.com. Chordie works as a search engine and provides on-the-fly formatting. Chordie does not index songs against artists/composers will. To remove this song please click here.

This song is displayed as text-only. Transposing and tuning is only available for chordpro-songs.

Login - add to songbook

Rating click stars to rate

Layout
Accuracy

SHARE PAGE  

You need to log in to post comments