Guitar Tabs, Chords and Lyrics


Interstate Love Song  Velvet Revolver

e--------------------------------------------------------------------------|


B----------------------------------------------4-4-5-4---------------------|


G--4/6--4-4/6-4----------------------------5------------4/6---4-4-6-4------|

D----------------4/6--4-6-4-------------6------------------------------4/6-|
A----------------------------7-7----7-9------------------------------------|
E--------------------------------------------------------------------------|
e----------------0-0-0-0-0-0-0-0-------------------0-0-0-0-0-0-0-0-|
B--3-2-0------0--0-0-0-0-0-0-0-0---3-2-0--------0--0-0-0-0-0-0-0-0-|
G--------2-1/2---1-1-1-1-1-1-1-1----------2-1/2----1-1-1-1-1-1-1-1-|
D----------------2-2-2-2-2-2-2-2-------------------2-2-2-2-2-2-2-2-|
A----------------2-2-2-2-2-2-2-2-------------------2-2-2-2-2-2-2-2-|
E----------------X-X-X-X-X-X-X-X-------------------X-X-X-X-X-X-X-X-|
[Cm#]Waiting on a [Cm]Sunday afternoon
[Bm]For what I read between the [Am#]lines, your [A]lies.   [E]
[Cm#]Feelin' like a [Cm]hand in rusted shame
So [Bm]do you laugh or does it [Am#]cry?
[A]Reply?   [E]
Fig 1.


Chorus

[Cm#]Leavin' on a [E]southern train
Only [A]yesterday you [G#]lied,
[A]Promises of what I [E]seemed to be
Only watched the [A]time [G#]go by,
[A]All of these things you said to [E]me.

Fig 1.


[Cm#]Breathing is [Cm]the hardest thing to do
[Bm]With all I've said and
All that's dead for [Am#]you,
[A]You lie[E]d - [A]good bye[E]
2nd Chorus

[Cm#]Leavin' on a [E]southern train
Only [A]yesterday you [G#]lied,
[A]Promises of what I [E]seemed to be
Only watched the [A]time [G#]go by,
[A]All of these things you said to [E]me.   [A]      [A2]      [E]

[A2]-0
-0
[-2]-x

Important: The song above is NOT stored on the Chordie server. The original song is hosted at www.guitaretab.com. Chordie works as a search engine and provides on-the-fly formatting. Chordie does not index songs against artists'/composers' will. To remove this song please click here.

Text color:
Chord color:
Chord grids: 
Font size:    
Page size: 

A A2 Bm Cm E G#
variations - click chord images

Login - add to songbook

Transpose chords

Tuning

Rating click stars to rate

Layout
Accuracy

SHARE PAGE  




You need to log in to post comments