Yeah Man

Veruca Salt

-------------------------------------------------------------------------------

-------------------------------------------------------------------------------

 EEBAEBA
|-0-0-|--------------------------------------------|--------------|
|-0-0-|------------2222-2222-----------------------|------------2-|
|-1-1-|-4444-4444--2222-2222--1111-1111-1111-1111--|-4444-4444--2-|
|-2-2-|-4444-4444--2222-2222--2222-2222-2222-2222--|-4444-4444--2-|
|-2-2-|-2222-2222-------------2222-2222-2222-2222--|-2222-2222----|
|-0-0-|-----------------------0000-0000-0000-0000--|--------------|


Chorus ("you won't let me down")
 ECECECE
|----------------------------------------|
|----------------------------------------|
|-9~----5~----9~----5~----9~----5~----9~-|
|-9~----5~----9~----5~----9~----5~----9~-|
|-7~----3~----7~----3~----7~----3~----7~-|
|----------------------------------------|


Verse 2
|------------------------------|
|------------------------------|
|------------------------------|
|------------------------------|
|----543----545----543----545^-|
|-00-----00-----00-----00------|


 EEBAEBA
|-0-0-|--------------------------------------------|--------------|
|-0-0-|------------2222-2222-----------------------|------------2-|
|-1-1-|-4444-4444--2222-2222--1111-1111-1111-1111--|-4444-4444--2-|
|-2-2-|-4444-4444--2222-2222--2222-2222-2222-2222--|-4444-4444--2-|
|-2-2-|-2222-2222-------------2222-2222-2222-2222--|-2222-2222----|
|-0-0-|-----------------------0000-0000-0000-0000--|--------------|


Chorus ("you won't let me down")
 ECECECE
|----------------------------------------|
|----------------------------------------|
|-9~----5~----9~----5~----9~----5~----9~-|
|-9~----5~----9~----5~----9~----5~----9~-|
|-7~----3~----7~----3~----7~----3~----7~-|
|----------------------------------------|


Bridge ("down down down baby")
 EBDABBEBDAEBDABBEBDA
|-------------------------------------------------------------|
|-------------------------------------------------------------|
|-9--4--7--2--4-4---9--4--7--2---9--4--7--2--4-4---9--4--7--2-|
|-9--4--7--2--4-4---9--4--7--2---9--4--7--2--4-4---9--4--7--2-|
|-7--2--5--0--2-2---7--2--5--0---7--2--5--0--2-2---7--2--5--0-|
|-------------------------------------------------------------|


"you can't save me..."
 AAABAAABAAAB
|----------------------------|
|----------------------------|
|-2-2-2-4--2-2-2-4--2-2-2-4--|
|-2-2-2-4--2-2-2-4--2-2-2-4--|
|-0-0-0-2--0-0-0-2--0-0-0-2--|
|----------------------------|


 EGAA#AG
|-----------------------|
|-----------------------|
|-----------------------|
|-2222--5555--777-8~7-5-|
|-2222--5555--777-8~7-5-|
|-0000--3333--555-6~5-3-|

PM.... .... ...

Verse 3
 EEBAEBA
|-0-0-|--------------------------------------------|--------------------------------|
|-0-0-|------------2222-2222-----------------------|------------2-------------------|
|-1-1-|-4444-4444--2222-2222--1111-1111-1111-1111--|-4444-4444--2222-2222-2222-2222-|
|-2-2-|-4444-4444--2222-2222--2222-2222-2222-2222--|-4444-4444--2-------------------|
|-2-2-|-2222-2222-------------2222-2222-2222-2222--|-2222-2222----------------------|
|-0-0-|-----------------------0000-0000-0000-0000--|--------------------------------|


Chorus ("you won't let me down")
 ECECECE
|----------------------------------------|
|----------------------------------------|
|-9~----5~----9~----5~----9~----5~----9~-|
|-9~----5~----9~----5~----9~----5~----9~-|
|-7~----3~----7~----3~----7~----3~----7~-|
|----------------------------------------|


Bridge ("down down down baby")
 EBDABBEBDAEBDABBEBDA
|-------------------------------------------------------------|
|-------------------------------------------------------------|
|-9--4--7--2--4-4---9--4--7--2---9--4--7--2--4-4---9--4--7--2-|
|-9--4--7--2--4-4---9--4--7--2---9--4--7--2--4-4---9--4--7--2-|
|-7--2--5--0--2-2---7--2--5--0---7--2--5--0--2-2---7--2--5--0-|
|-------------------------------------------------------------|


"you can't save me..."
 AAABAAABAAAB
|----------------------------|
|----------------------------|
|-2-2-2-4--2-2-2-4--2-2-2-4--|
|-2-2-2-4--2-2-2-4--2-2-2-4--|
|-0-0-0-2--0-0-0-2--0-0-0-2--|
|----------------------------|


A B C D E G
variations - click chord images
Transpose chords:
Tuning:
Cool service:
View: Size:
A  A  A
Rating:
Layout:
  • Currently 3.1/5 Stars.
  • 1
  • 2
  • 3
  • 4
  • 5
 
Accuracy:
  • Currently 2.5/5 Stars.
  • 1
  • 2
  • 3
  • 4
  • 5
 
click stars to rate
Chordie recommends:
Learn to play guitar with video-based, online guitar lessons at JamPlay.com
Songbook:
Login to add this song to your songbook
Support the artist
Preview/buy this song
MSN Music
Why this non-profit ad?

 
login to add comments/video/corrections