Guitar Tabs, Chords and Lyrics


Jaws Of Life   Wintersleep


e----------------------------------|








b----------------------------------|








g----------------------------------|



D---5-5-5-5-5-7--7-7-7--7-7-7--7-7-|



G---5-5-5-5-5-7--7-7-7--7-7-7--7-7-|



B---5-5-5-5-5-7--7-7-7--7-7-7--7-7-|



e----------------------------------------------------------------|



b----------------------------------------------------------------|



g-----5-----5------7------7--------7--------7---------7--------7-|



D---5----5------7-----7--------7--------7--------7---------7-----|



G----------------------------------------------------------------|



B----------------------------------------------------------------|



e---------------------------------|



b---------------------------------|



g---------------------------------|



D---2-2-2-4-4-4-4-4-4-4-4-4-4-4-4-|



G---0-0-0-2-2-2-2-2-2-2-2-2-2-2-2-|



B---1-1-1-3-3-3-3-3-3-3-3-3-3-3-3-|



e---------------------------------|



b---5-5-5-7-7-7-7-7-7-7-7-7-7-7-7-|



g---5-5-5-7-7-7-7-7-7-7-7-7-7-7-7-|



D---5-5-5-7-7-7-7-7-7-7-7-7-7-7-7-|



G---5-5-5-7-7-7-7-7-7-7-7-7-7-7-7-|



B---------------------------------|



e--------------------------------------------------------|



b--------------------------------------------------------|



g--------------------------------------------------------|



D---5-5-5-5-5-7--7-7-7-5-5-7-5-5-5-7--7-7-7--7-7-7-7-7-7-|



G---5-5-5-5-5-7--7-7-7-5-5-7-5-5-5-7--7-7-7--7-7-7-7-7-7-|



B---5-5-5-5-5-7--7-7-7-5-5-7-5-5-5-7--7-7-7--7-7-7-7-7-7-|





    [d]  [u]  [d]  [d]   [d]  [d]  [d]   [d]  [d]  [d]   [u]  [d]                                                                               


e------------------------------|
b------------------------------|
g---5-5-5-7--7-7-7--7-7-7--7-7-|
D---5-5-5-7--7-7-7--7-7-7--7-7-|    3 times
G---5-5-5-7--7-7-7--7-7-7--7-7-|
B---5-5-5-7--7-7-7--7-7-7--7-7-|





listen for variations





    [d]  [u]  [d]  [d]   [d]  [d]  [d]   [d]  [d]  [d]   [u]  [d]                                                                               


e------------------------------|
b------------------------------|
g------------------------------|    5 times
D---2-2-2-4--4-4-4--4-4-4--4-4-|
G---0-0-0-2--2-2-2--2-2-2--2-2-|
B---1-1-1-3--3-3-3--3-3-3--3-3-|
e-----------------------------------|
b-----------------------------------|
g----------------/7-7-7-7-7-7-------|      4 times
D---2-2-2--4-4-4-/7-7-7-7-7-7-------|
G---0-0-0--2-2-2-/7-7-7-7-7-7-------|
B---1-1-1--3-3-3--------------------|








then repeat first distorted part 4 times then end on:





                                                                                                           


D--2-2-2-2-|
G--0-0-0-0-|
B--1-1-1-1-|



Important: The song above is NOT stored on the Chordie server. The original song is hosted at www.guitaretab.com. Chordie works as a search engine and provides on-the-fly formatting. Chordie does not index songs against artists'/composers' will. To remove this song please click here.

This song is displayed as text-only. Transposing and tuning is only available for chordpro-songs.

Login - add to songbook

Rating click stars to rate

Layout
Accuracy

SHARE PAGE  




You need to log in to post comments