Guitar Tabs, Chords and Lyrics


Quadret Im Kreis  Wizo

e------------------------------------------|


H------------------------------------------|


G------------------------------------------|

D---3-3-3-3---7-7-7-7---7-7-7-7---5-5-5-5--|
A--5-5-5-5---5-5-5-5---3-3-3-3---3-3-3-3---|
E------------------------------------------|
e------------------------------------------|
H------------------------------------------|
G------------------------------------------|
D---3-3-3-3---2-2-2-2---2-2-2-2---5-5-5-5--|
A--1-1-1-1---1-1-1-1---0-0-0-0---0-0-4-4---|
E------------------------------------------|
e------------------------------------------|
H------------------------------------------|
G------------------------------------------|
D---3-3-3-3---3-3-3-3---5-5-5-5---5-5-5-5--|
A--5-5-5-5---5-5-5-5---3-3-3-3---3-3-3-3---|
E------------------------------------------|
e------------------------------------------|
H------------------------------------------|
G------------------------------------------|
D---3-3-3-3---3-3-3-3---2-2-2-2---5-5-5-5--|
A--1-1-1-1---1-1-1-1---0-0-0-0---0-0-4-4---|
E------------------------------------------|
e------------------------------------------|
H------------------------------------------|
G------------------------------------------|
D---12--12--12--12----12--13--12--12-------|
A-10--10--10--10----10--10--10--10---------|
E------------------------------------------|
e------------------------------------------|
H------------------------------------------|
G------------------------------------------|
D--12-12-12-12---12-13-12-12---------------|
A-9--9--9--9----9--9--9--9-----------------|
E------------------------------------------|
e------------------------------------------|
H------------------------------------------|
G------------------------------------------|
D--12-12-12-12---12-13-12-12---------------|
A-8--8--8--8----8--8--8--8-----------------|
E------------------------------------------|
e------------------------------------------|
H------------------------------------------|
G--2-2-2-2----0-0-0-0----------------------|
D------------------------------------------|
A-2-2-2-2----2-2-2-2-----------------------|
E------------------------------------------|
[F]  Doch der Schmerz ist zucke[C]rsüß und irgendwie auch so ve[dm]rtraut
xxA xxA xxA xxA
Ich hab mich dran gewöhnt
[F]  So fehlt zur letzten Konse[C]quenz einmal mehr das bisschen[dm] Mut
  Und die paradoxe [A]Wut darüber wird im Traum er[B]tränkt
  Von der beschissenen Leichtig[A]keit des Scheins
F xxA xxA xxA xxA
oh-o-o-oh (2x)

Zwischenspiel: Riff 1

(Riff2)
Hin und wieder wird mir klar, dass alles anders geworden ist,
Als es scheint, dass es früher einmal war
Hin und wieder spüre ich, dass ich die Sonne nicht mehr mag,
Weil ich das helle Licht nicht mehr ertrag

Refrain (Powerchords):
[F]  Doch der Schmerz ist zucke[C]rsüß und irgendwie auch so ve[dm]rtraut
xxA xxA xxA xxA
Ich hab mich dran gewöhnt
[F]  So fehlt zur letzten Konse[C]quenz einmal mehr das bisschen[dm] Mut
  Und die paradoxe [A]Wut darüber wird im Traum er[B]tränkt
  Von der beschissenen Leichtig[A]keit des Scheins
F xxA xxA xxA xxA
oh-o-o-oh (2x)

(Riff 3)
Wie ein Quadrat in einem Kreis eck ich immer wieder an,
Obwohl ich doch schon lange weiß, dass ich niemals ändern kann,
Was sich niemals ändern wird, weil das Schlechte immer bleibt,
Und doch die Sonne wieder scheint, scheißegal, was auch passiert.

F xxA xxA xxA xxA
o.o-o yeah usw. 4x

(Wie Riff 2 Anfang)
Immer wieder stell ich fest, dass das hin und wieder immer öfter ständig

Important: The song above is NOT stored on the Chordie server. The original song is hosted at www.guitaretab.com. Chordie works as a search engine and provides on-the-fly formatting. Chordie does not index songs against artists'/composers' will. To remove this song please click here.

Text color:
Chord color:
Chord grids: 
Font size:    
Page size: 

A B C F
variations - click chord images

Login - add to songbook

Transpose chords

Tuning

Rating click stars to rate

Layout
Accuracy

SHARE PAGE  




You need to log in to post comments