Guitar Tabs, Chords and Lyrics


Semangat Yang Hilang   Xpdc



-------------------------------------------------------------------------------
			     Semangat Yang Hilang - XPDC
-------------------------------------------------------------------------------
Tabbed by: musangblokf
Email: musangblokf@yahoo.com

Tuning: Standard E

* Listen to the song, and i'm sure u'lll know the timing and tempos.


e|---------------------------------------------------------------------------|
B|-----------------------------------------------------1-h-3-p-1-1-p-0-h-1---|
G|-------------------0-----------------------------2-------------------------|
D|-----2---2-h-3-p-2-----------------------0-----2---2-----------------------|
A|-3-------------------------2---2-h-3-p-2-----0-----------------------------|
E|-----------------------3---------------------------------------------------|

e|-----------------------1-----------------3---------------------------------|
B|---------1---------3-----3-----------0-------------------------------------|
G|-----2-----2-----2---------------------0-----------------------------------|
D|---3-----------0-----------------0-----------------------------------------|
A|-0-----------------------------2-------------------------------------------|
E|-----------------------------3---------------------------------------------|




| h  hammer-on
| p  pull-off


Important: The song above is NOT stored on the Chordie server. The original song is hosted at www.guitaretab.com. Chordie works as a search engine and provides on-the-fly formatting. Chordie does not index songs against artists/composers will. To remove this song please click here.

This song is displayed as text-only. Transposing and tuning is only available for chordpro-songs.

Login - add to songbook

Rating click stars to rate

Layout
Accuracy

SHARE PAGE  




You need to log in to post comments