Guitar Tabs, Chords and Lyrics


Hard hearted hannah   Stefan Grossman




Xref: undergrad.math.uwaterloo.ca rec.music.makers.guitar.acoustic:4530




Distribution: world

Originator: rmmga@jhunix.hcf.jhu.edu
Reply-To: 





As requested:

Hard Hearted Hannah (Dropped D Tuning) 

Chorus Only
#cutline#

From	: "How to Play Ragtime Guitar" 
By     	:  Stefan Grossman aand Ton Van Bergeyk
On 	:  Kicking Mule Records XTRS 1151

For you folk not used to Stefans idiosyncratic TAB system.
The 'Bars' are not real (n beats to the bar) bars, 
they just serve to divide up various phrases the tune.

e|------------------------|---------------------|-----------|
B|------------------------|-0-----0-----2--0----|-----------|
G|-4-----4--2--4--2-----2-|----------2----------|--------1--|
D|-4-----4-----3--2-------|-------1-----------1-|-----------|
A|-------5-----4-----3----|-2-----------2-------|----2------|
D|-0----------------------|---------------------|-0---------|
   T     T     T     T      T     T     T     T   T

e|------------------------|---------------|-2-----2-----2---|
B|-------------0-----1----|---------------|-2-----2--5------|
G|-------------1-----2----|-2-----3-----4-|-------2---------|
D|-3--4--3--4-------------|-4-----5-----6-|-----------------|
A|----------0-------------|---------------|-0-----------0---|
D|----4-----------3-----2-|-4-----5-----6-|-----------------|
      T	    T	  T     T   T     T     T   T     T     T

e|----0--2--5--2-----2--5----|------10-|-10------------|
B|-1-----2--------5--2-------|---7-----|---------------|
G|-1-----------2-----------2-|---------|---------------|
D|---------------------------|-7-------|----0--0--2--0-|
A|-------0-----------0-------|---------|---------------|
D|---------------------------|---------|---------------|
   T     T     T     T     T   T               T     T

e|-1-----1-----2--0----|------------------------|
B|-------------0-------|------------------------|
G|-1-----1-----0-------|-4-----4--2--4--2-----2-|
D|---------------------|-4-----4-----3--2-------|
A|-1-----1-----------0-|-------5-----4-----3----|
D|---------------------|-0----------------------|
   T     T     T     T   T     T     T     T

e|---------------------|----------------0-------------|
B|-0-----0-----2--0----|----------------------3-----1-|
G|----------2----------|-------0----------------------|
D|-------1-----------1-|-2--4-----2--4-----2--------0-|
A|-2-----------2-------|-------2--------------2-----3-|
D|---------------------|-2-----------4-----------0----|
   T     T     T     T   T     T     T     T     T

e|-------0-----0-----0-----0----|-1-----1-------|
B|-3--------3-----3-----3-----3-|----3-----3----|
G|------------------------------|-------3-------|
D|-4----------------------------|---------------|
A|-------------------0-----2----|-1-----------1-|
D|-4-----5-----6----------------|---------------|
   T     T     T     T     T      T     T     T

e|-0-----2--1--2--1--2--5----|-7--7-----------7----|
B|----3----------------------|----------7----------|
G|---------------------------|-------4-----------4-|
D|-------0-----------0-------|---------------------|
A|-0-----------0-----------0-|-6-----------6-------|
D|---------------------------|---------------------|
   T     T     T     T     T   T     T     T     T

e|-10----10-7--10-7----|-5--7--5--0--2-----0-|
B|---------------------|-5-----5--------3----|
G|-9-----------0-------|---------------------|
D|-------9-----------6-|-7-------------------|
A|---------------------|-------0-----2-----4-|
D|---------------------|---------------------|
   T     T     T     T   T     T     T     T

e|-----------------------------||
B|-3-------3-----3-----3-----3-||
G|-2-------2-----1-----0-----2-||
D|----0----4-----3-----2-----0-||
A|-----------------------------||
D|---------4-----3-----2-----0-||

Enjoy
I've checked it through but if you find any typos, let me know.
-- 
J. Trevor Jones  - jjt@np.ac.sg - Ngee Ann Polytechnic - Singapore 2159
* I'm English and I teach, but that doesn't make me an English teacher. * 



Important: The song above is NOT stored on the Chordie server. The original song is hosted at www.lindesign.se. Chordie works as a search engine and provides on-the-fly formatting. Chordie does not index songs against artists/composers will. To remove this song please click here.

This song is displayed as text-only. Transposing and tuning is only available for chordpro-songs.

Login - add to songbook

Rating click stars to rate

Layout
Accuracy

SHARE PAGE  




You need to log in to post comments