Guitar Tabs, Chords and Lyrics


Allegro   Mauro Giuliani







                                  
				ALLEGRO
                                                                 M.Giuliani

Chords above tabs indicate how to place your fingers
Am       = 002210
Dm       = 000231
Am/C     = 030210
mf       = mezzoforte (medium strong)
f        = forte (strong)
p        = piano (light)
cresc.   = crescendo (play stronger and stronger)
decresc. = decrescendo (play lighter and lighter)

4/4
   Am                                Dm
e|---------0-----------------------|---------1-----------------------|
H|-----1-------1-------------------|-----3-------3-------------------|
G|---2---2---2---2---2---2---2---2-|---2---2---2---2---2---2---2---2-|
D|---------------------------------|-0---------------0---2---3---0---|
A|-0---------------0---2---3---0---|---------------------------------|
E|---------------------------------|---------------------------------|
  mf               cresc._________   decresc._______ cresc._________
  E                                 Am/C             E7
e|---------0-----------------------|---------0---------------0-------|
H|-----0-------0-------------------|-----1-------1-------3-------3---|
G|---1---1---1---1---1---1---1---1-|---2---2---2---2---1---1---1---1-|
D|-2---------------2---3---2---0---|---------------------------------|
A|---------------------------------|-3---------------2---------------|
E|---------------------------------|---------------------------------|
                   cresc._________   decresc.___________ p

  Am                                Dm
e|---------0-----------------------|---------1-----------------------|
H|-----1-------1-------------------|-----3-------3-------------------|
G|---2---2---2---2---2---2---2---2-|---2---2---2---2---2---2---2---2-|
D|---------------------------------|-0---------------0---2---3---0---|
A|-0---------------0---2---3---0---|---------------------------------|
E|---------------------------------|---------------------------------|
  Am                                Esus4            E
e|---------0---------------0-------|---------1---------------0-------|
H|-----1-------1-------1-------1---|-----0-------0-------0-------0---|
G|---2---2---2---2---2---2---2---2-|---2---2---2---2---1---1---1---1-|
D|-2-------------------------------|-0-------------------------------|
A|---------------------------------|---------------------------------|
E|-----------------0---------------|-----------------0---------------|
   cresc.___________________________________________ decresc._______
   Am      E7      Am      Em        Am      E7      Am      Em
e|-------0-------0-------0-------0-|-------0-------0-------0-------0-|
H|-----1-------3-------1-------0---|-----1-------3-------1-------0---|
G|---2-------1-------2-------0-----|---2-------1-------2-------0-----|
D|---------------------------------|---------------------------------|
A|-0---------------0---------------|-0---------------0---------------|
E|---------0---------------0-------|---------0---------------0-------|
   cresc.___________________________________________________________
   Am
e|---------------------------------|
H|---------------------------------|
G|-2-------------------------------|
D|---------------------------------|
A|-0-------------------------------|
E|---------------------------------|
   f



Important: The song above is NOT stored on the Chordie server. The original song is hosted at www.lindesign.se. Chordie works as a search engine and provides on-the-fly formatting. Chordie does not index songs against artists'/composers' will. To remove this song please click here.

This song is displayed as text-only. Transposing and tuning is only available for chordpro-songs.

Login - add to songbook

Rating click stars to rate

Layout
Accuracy

SHARE PAGE  




You need to log in to post comments

frizztext (report)

my last three bars:
Am Dm6 Am E Am E7 Am E
e|-------0-------1-------0-------0-|-------0-------1-------0-------0-|
H|-----1-------0-------1-------0---|-----1-------0-------1-------0---|
G|---2-------2-------2-------1-----|---2-------2-------2-------1-----|
D|---------0-------2---------------|---------0-------2---------------|
A|-0-------------------------------|-0-------------------------------|
E|-------------------------0-------|-------------------------0-------|


Am
e|-5-------5-------5---------------|
H|-5-------5-------5---------------|
G|-5-------5-------5---------------|
D|-7-------7-------7---------------|
A|-0-------0-------0---------------|
E|---------------------------------|