Whole lot easier

Dodgy



 CDFC
   e|-------------------------------------------------------
   B|-------------------------------------------------------
   G|-------------------------------------------------------
   D|----------------3----3---5-----------------------------
   A|--3-3-0--3h5--5---5----5-----5p3h5--3p5--7-8---7-8--7--
   E|-------------------------------------------------------

 CDFC
   e|---------------------------------------------------------
   B|---------------------------------------------------------
   G|---------------------------------------------------------
   D|----5----5--7--------------------------------------------
   A|--7----7--------5p3-5--5p3---7-8--7-8---5-7--5-7--5h7p5--
   E|---------------------------------------------------------

 GAm
 It's a whole lot easier like this
 CG
'Cos you weren't in my life
 GAm
 But I don't think you'll always
 CF
 Be wrestling on my mind
 F
 And my friends tell me it's for the best
 FG
 And that truth is sometimes unkind
 CDFC
 I don't want to see you know that you are gone 
 D
Certain yes it's certain
 FC
But I think I can go on 
Walking home alone again
>From somewhere I can't remember
I got lost along the way
In this sprawling September
My friends tell me it's for the best
And that truth is sometimes unkind
I don't want to see you know that you are gone
Certain yes it's certain
But I think I can go on
I don't want to see you know that you are gone
I'm so glad I left you
I'm so glad we're done
I don't want to see you know that you are gone
Certain yes it's certain
But I think I can go on
I don't want to see you know that you are gone
I'm so glad I left you
I'm so glad we're done
Masanori OGINO
E-mail: ogino@ke.sys.hiroshima-u.ac.jp


Am C D F G
variations - click chord images
Transpose chords:
Tuning:
Cool service:
View: Size:
A  A  A
Rating:
Layout:
  • Currently 4/5 Stars.
  • 1
  • 2
  • 3
  • 4
  • 5
 
Accuracy:
  • Currently 3/5 Stars.
  • 1
  • 2
  • 3
  • 4
  • 5
 
click stars to rate
Chordie recommends:
Learn to play guitar with video-based, online guitar lessons at JamPlay.com
Songbook:
Login to add this song to your songbook
Support the artist
Preview/buy this song
MSN Music
Why this non-profit ad?

 
login to add comments/video/corrections