Annies song

John Denver


Date: Wed, 31 May 1995 08:57 +1200 (NZST)
Annies Song - John Denver ~~~~~~~~~~~ Arranged by John Kean.
Standard tuning. 3/4 time.
Rpt x3 ~ ||-----------2--------|--3--------3--------||--2---------------| ||--------3-----3-----|-----3--------3-----||--3----------3----| ||*----2-----------2--|--------2--------2-*||*-2---------------| ||*-0-----------------|--0----------------*||*-0---------------| ||--------------------|--------------------||------------------| ||--------------------|--------------------||------------------|
|--------------------|--------------------|--------------------| |--3-----2-----0-----|--3--------3--------|--2--------2--------| |-----2-----2-----2--|--------0-----0-----|--------2-----2-----| |--0-----------------|-----0-----------0--|-----2-----------2--| |--------------------|--------------------|--0-----------------| |--------------------|--3-----------------|--------------------|
|--------------------|--------------------|-----------2--------| |-----------3-----0--|--0-----2-----3-----|-----3--------3-----| |--------4-----4-----|-----0-----0-----0--|--2--------------2--| |-----4--------------|--------------------|--0-----4-----------| |--2-----------------|--------------------|--------------------| |--------------------|--3-----------------|--------------------|
|-----------2--------|-----------2--------|--------------------| |--------3-----3-----|--------3-----3-----|--------0-----2-----| |-----2-----------2--|-----2-----------2--|--2--------2-----2--| |--------------------|--------------------|-----0--------------| |--4-----------------|--2-----------------|--0-----------------| |--------------------|--------------------|--------------------|
|--------------------|--------------------|--------------------| |--3--------3--------|--2-----------------|--------------0-----| |--------0-----0-----|-----------2--------|-----------0-----4--| |-----0-----------0--|--------4-----4-----|--------2-----------| |--------------------|-----4-----------4--|-----2--------------| |--3-----------------|--2-----------------|--0-----------------|
|--------------------|--------------------|--------------------| |--0-----2--------3--|--2--------2--------|--3--------3--------| |-----0-----0--------|--------2-----2-----|-----2--------2-----| |--------------0-----|-----2-----------2--|--------2--------2--|
|--------------------|--0-----------------|--0-----------------| |--3-----------------|--------------------|--------------------|
|--0-----------------|--------------------|--------------------| |--------2-----3-----|--3-----2-----0-----|--3--------3--------| |-----2-----------2--|-----2-----2-----2--|--------0-----0-----| |--------------------|--------------------|-----0-----------0--| |--0--------0--------|--0-----------------|--------------------| |--------------------|--------------------|--3-----------------|
|--0-----------------|-----------2--------|--------------------| |-----------2--------|--------------3-----|--3-----2-----0-----| |--------2-----2-----|--------4--------4--|-----0-----0-----0--| |-----2-----------2--|-----4--------------|--------------------| |--0-----------------|--2-----------------|--------------------| |--------------------|--------------------|--3-----------------|
|-----------2--------|-----------2--------|-----------2--------| |-----3--------3-----|--------3-----3-----|--------3-----3-----| |--2--------------2--|-----2-----------2--|-----2-----------2--| |--0-----4-----------|--------------------|--------------------| |--------------------|--4-----------------|--2-----------------| |--------------------|--------------------|--------------------|
|--------------------|--------------------|--------------------| |--------0-----2-----|--3--------3--------|--2-----------------| |--2--------2-----2--|--------0-----0-----|-----------2--------| |-----0--------------|-----0-----------0--|--------4-----4-----| |--0-----------------|--------------------|-----4-----------4--| |--------------------|--3-----------------|--2-----------------|
|--------------------|-----------------0--|-----------2--------| |--------------0-----|--2-----3-----------|--3-----3-----3-----| |-----------0-----0--|-----0-----0--------|-----2-----------2--| |--------2-----------|--------------2-----|--0-----------------| |-----2--------------|--0-----------------|--------------------| |--0-----------------|--------------------|--------------------|
|--3--------3--------||-----------2--------|--3--------3-------| |-----3--------3-----||--------3-----3-----|-----3--------3----| |--------2--------2-*||-----2-----------2--|--------2--------2-| |--0----------------*||--0-----------------|--0----------------| |--------------------||--------------------|-------------------| |--------------------||--------------------|-------------------|
~ |--2--------2--------|--3--------3--------|--2----------------|| |--------3-----3-----|-----3--------3-----|--3----------------|| |-----2-----------2--|--------2--------2--|--2----------------|| |--0-----------------|--0-----------------|--0----------------|| |--------------------|--------------------|-------------------|| |--------------------|--------------------|-------------------||

























variations - click chord images
Transpose chords:
Tuning:
Cool service:
View: Size:
A  A  A
Rating:
Layout:
  • Currently 0/5 Stars.
  • 1
  • 2
  • 3
  • 4
  • 5
 
Accuracy:
  • Currently 2.8/5 Stars.
  • 1
  • 2
  • 3
  • 4
  • 5
 
click stars to rate
Chordie recommends:
Learn to play this song & others via video guitar lessons at JamPlay.com
Songbook:
Login to add this song to your songbook
Support the artist
Preview/buy this song
MSN Music
Why this non-profit ad?

 
login to add comments/video/corrections