Guitar Tabs, Chords and Lyrics


Orange skies  Love



Intro [fingerpicked electric, 2X; bass enters 2nd time]:
D F#m/C# Em/B Gm*
v v v v v v v v v v v v v
	-----7-------5---|-----5-----5-5---|-----0-----------|-3-
	---7-------7-----|---7------7-7----|---0-0-------0---|-3-
	-7-----7-------7-|-6-----6-------6-|-0-----0-----0---|-3-
	-----------------|-----------------|-----------0-----|---
	-----------------|-----------------|-----------------|---
	-----------------|-----------------|-----------------|---


* guitar II plays Bb-C-Db-C-Bb in octaves over Gm chord

Verse 1:

        [D]Orange [F#m/C#]skies
Em/B Gm Dm9 xx0210
Carnivals and cotton candy and you
	-0--0--0----0---0-----0---0---0--0-
	-1--0--1----3---1-----0---1---0--1-
	-2--0--2----4---2-----0---2---0--2-
	-0--0--0----0---0-----0---0---0--0-
	-----------------------------------
	-----------------------------------

        [D  E  F    G   F     E   D   C  D     <- bass] 
and I love you too you know I do
Link:
        [Amaj7]                                Verse 2:
Nightingale
Prettier than anything in the world
And I love you too
You know I do
Bridge:
        [Cmaj7]You make me [Fmaj7]happy
        [Cmaj7]Laughing, glad, and [Fmaj7]full of glee
        [Cmaj7]And you don't have to[Fmaj7] try, girl
        [Cmaj7]For you it comes so n[Fmaj7]aturally
        Right here in my [Cmaj7]arms[Bb6]
        [repeat intro w/bass tbrougbout] 
        [repeat verse 1] 
        [repeat bridge] 
Flute solo:
        [Fmaj7]                 [Amaj7]                                                  [Fmaj7]                 [Cmaj7]                                                  [Gm9]                             Coda:
        [scat over intro cbords; end on Dm9] 
-- another ace 60's tab from Andrew Rogers

Important: The song above is NOT stored on the Chordie server. The original song is hosted at www.lindesign.se. Chordie works as a search engine and provides on-the-fly formatting. Chordie does not index songs against artists'/composers' will. To remove this song please click here.

Text color:
Chord color:
Chord grids: 
Font size:    
Page size: 

Amaj7 Bb6 Cmaj7 D F#m/C# Fmaj7 Gm9
variations - click chord images

Login - add to songbook

Transpose chords

Tuning

Rating click stars to rate

Layout
Accuracy

SHARE PAGE  




You need to log in to post comments