Guitar Tabs, Chords and Lyrics


Malaguena   Various Artists








                           MALAGUENA
                                                              Anon.
Alegretto
3/4

   E                           Am
e|---0---0---0-|---0---0---0-|---0---0---0-|---0---0---0-|
h|---------0---|---------0---|-----1---0---|-------------|
g|-----1-------|-----1-------|-2-----------|-2---0-------|
d|-2-----------|-2-----------|-------------|---------3---|
a|-------------|-------------|-------------|-------------|
E|-------------|-------------|-------------|-------------|
  p    crescendo                   f   decrescendo

   E                           Am                          E
e|---0---0---0-|---0---0---0-|---0---0---0-|---0---0---0-|-0-----------|
h|---------0---|---------0---|-----1---0---|-------------|-0-----------|
g|-----1-------|-----1-------|-2-----------|-2---0-------|-1-----------|
d|-2-----------|-2-----------|-------------|---------3---|-2-----------|
a|-------------|-------------|-------------|-------------|-------------|
E|-------------|-------------|-------------|-------------|-------------|
          accelrando                               Rit.         Fine

   Lento
e|-------------|-----0---1---|-0-----------|
h|-0---1---3---|-3-----------|-----3-1-0-3-|
g|-------------|-------------|-------------|
d|-------------|-------------|-------------|
a|-------------|-------------|-0-----------|
E|-0-----------|-0-----------|-------------|
  p                       mf   mp

e|-------------|-------------|-------------|-------------|
h|-1-----------|-0---3---3---|-3---1---0---|-0-----0-1-0-|
g|-------------|-------------|-------------|-----2-------|
d|---------2---|-------------|-------------|-------------|
a|-0---3-------|-------------|-------------|-0-----------|
E|-------------|-0-----------|-0-----------|-------------|

e|-------------|-------------|-----0---1---|-0-----------|
h|-------------|-0---1---3---|-3-----------|-----3-1-0-3-|
g|-2-----------|-------------|-------------|-------------|
d|-------------|-------------|-------------|-------------|
a|-0---3---2---|-------------|-------------|-0-----------|
E|-------------|-0-----------|-0-----------|-------------|

e|-------------|-------------|-------------|-----0---0-1-|-0-----------|
h|-1-----------|-0---3---1---|-1---0-------|-3-----3-----|-------------|
g|-------------|-------------|---------2---|-------------|-------------|
d|-------------|-------------|-3-----------|-3-----------|-------------|
a|-0---3---2---|-------------|-------------|-------------|-------------|
E|-------------|-0-----------|-------------|-------------|-0-----------|
                                                          f  D.C. al fine


Important: The song above is NOT stored on the Chordie server. The original song is hosted at www.lindesign.se. Chordie works as a search engine and provides on-the-fly formatting. Chordie does not index songs against artists'/composers' will. To remove this song please click here.

This song is displayed as text-only. Transposing and tuning is only available for chordpro-songs.

Login - add to songbook

Rating click stars to rate

Layout
Accuracy

SHARE PAGE  




You need to log in to post comments