"yes"; ?> Melt with you by Modern English - guitar chords, guitar tabs and lyrics - chordie

Melt with you

Modern English



 F4F3F2F1
----|---3-|-----|----- E
----|-4---|-----|----- A
----|-----|--2--|----- D
----|-----|-----|----- G  O
----|-----|-----|--1-- B
----|-----|-----|----- E  O

Chord#2:
 F4F3F2F1
----|-----|-----|----- E  X
----|---3-|-----|----- A
----|-4---|-----|----- D
----|-----|--2--|----- G
----|-----|-----|--1-- B
----|-----|-----|----- E  O

(Numbers denote fret)
Refrain:
------3-----------3-------- E
----3---3-------3---3------ A
--2-------2-0-2-------2-0-- D
--------------------------- G
--------------------------- B
--------------------------- E

Bridge to solo:
--------------------------- E
--------------------------- A
--------------------------- D
--------------------------- G
--------------------------- B
---13--11--9--13--11--9---- E

Solo:
-------------10-----------  E
--10-----10-------------10- A
------9----------10--9----- D
--------------------------- G
--------------------------- B
--------------------------- E

end
-------------------------------------------------------------------------------

"Hey....like all these positive waves man...Maybe we can't lose."
amato@chiron.com (510)420-4765
Twenty-two years a Pittsburgh Steelers fan and counting!
'94 Steelers record: 2-1-0
Next Game: Sunday 9/25 @Seattle 1:00pm pst
-------------------------------------------------------------------------------

\|/
-^-
 -
 |


















F2 F3 F4
variations - click chord images
Transpose chords:
Tuning:
Cool service:
View: Size:
A  A  A
Rating:
Layout:
  • Currently 2.9/5 Stars.
  • 1
  • 2
  • 3
  • 4
  • 5
 
Accuracy:
  • Currently 3.8/5 Stars.
  • 1
  • 2
  • 3
  • 4
  • 5
 
click stars to rate
Chordie recommends:
Get acoustic guitar lessons and electric guitar lessons at JamPlay.com
Songbook:
Login to add this song to your songbook
Support the artist
Preview/buy this song
MSN Music
Why this non-profit ad?

 
login to add comments/video/corrections