Chordie logo

Birdman   Our Lady Peace






[two versions]



Title:         Birdman
Group:        Our Lady Peace
Album:         Naveed
Wrote by:     Our Lady Peace
Transcribe by: Bruno Lamoureux
----------------------------------------------------------------------
In this song use the neck pickup. I just wrote the note, find out the
  rhytm by yourself...                                               
----------------------------------------------------------------------
                                                                      
riff a                                                                
|------------------------------------------------------------------------
|------------------------------------------------------------------------
|------------------------------------------------------------------------
|-----------11-11-13-----------------------------------------------------
|----13---13--------15-13-11---11---13---11---13-------------------------
|-11---11--------------------11---11---11---11---------------------------
                                                                      
                                                                      
riff b                                                                
|------------------------------------------------------------------------
|----14p13-----16--------------------------------------------------------
|---------13-------------------------------------------------------------
|-13--------13-----------------------------------------------------------
|-13---------------------------------------------------------------------
|------------------------------------------------------------------------
                                                                      
                                                                      
                                                                      
|------------------------------------------------------------------------
|------------------------------------------------------------------------
|------------------------------------------------------------------------
|-8--11-10-6--8---6---8--------------------------------------------------
|-x--x--x--x--x-------x--------------------------------------------------
|-6--9--8--4--6-4---4-6--------------------------------------------------
                                                                      
                                                                      
                                                                      
|------------------------------------------------------------------------
|------------------------------------------------------------------------
|----------8---------6---------------------------------------------------
|-4--3--2--8---8-7-6-6--4-5-6--------------------------------------------
|-4--3--2--6---8-7-6-4--4-5-6--------------------------------------------
|-2--1--0------6-5-4----2-3-4--------------------------------------------
                                                                      
                                                                      
                                                                      
|------------------------------------------------------------------------
|------------------------------------------------------------------------
|-8--9-------------------------------------------------------------------
|-8-8-9--x-x-x-x-x-x-x---------------------------------------------------
|-6------x-x-x-x-x-x-x---------------------------------------------------
|------------------------------------------------------------------------
                                                                      
                                                                      
                                                                      
|------------------------------------------------------------------------
|-11---11--11-11-11-11--11---11--11--------------------------------------
|-13b-b13-b13-13-13-13--13b-b13-b13--etc....-----------------------------
|------------------------------------------------------------------------
|------------------------------------------------------------------------
|------------------------------------------------------------------------
                                                                      
                                                                      
                                                                      
|------------------------------------------------------------------------
|------------------------------------------------------------------------
|-8--9----8-6--9-11------------------------------------------------------
|--8--9---8-6--9-11------------------------------------------------------
|---------6-4--7-9-------------------------------------------------------
|------------------------------------------------------------------------

--PART.BOUNDARY.902.14832.nyongwa.montreal.qc.ca.782595797.1--
Our Lady Peace - The BirdMan

Tabbed By Tom Kehler

------------------------------------------------------------------------------ 

Tune Down 1/2 A Step

I've Written Down All The Riffs. Just Figure Out The Ordering Your Self
Riff 1 

G-|------------------------|
D-|------------------------|
A-|------787---7-----------|
E-|--0-0------5------------|

Riff 2 

G-|------------------------|

D-|------------------------|
A-|------------------------|
E-|--0-0-5/-15-15-15\------|

Riff 3 

G-|------------------------|
D-|------------------------|
A-|------------------------|
E-|--33333333-2222-1111----|

Riff 4

G-|------------------------|
D-|------------------------|
A-|--777-------555---------|
E-|------7-6-5------3-4-5--|

Riff 5

G-|------------------------|
D-|------------------------|
A-|--777-555-888/10101010--|
E-|------------------------|

Riff 6

G-|------------------------|
D-|------------------------|
A-|--77777777-55555555-----|
E-|------------------------|



Important: The song above is NOT stored on the Chordie server. The original song is hosted at www.lindesign.se. Chordie works as a search engine and provides on-the-fly formatting. Chordie does not index songs against artists/composers will. To remove this song please click here.

This song is displayed as text-only. Transposing and tuning is only available for chordpro-songs.

Login - add to songbook

Rating click stars to rate

Layout
Accuracy

SHARE PAGE  



You need to log in to post comments