Guitar Tabs, Chords and Lyrics


Radio free europe   R.E.M














References:   

Keywords: murmur



	This song is already on ftp.nevada.edu, but with chords only, and sans
that Peter Buck jangly guitar it just doesn't sound like R.E.M.  So here are
the jangles.

	For the "Radio station/Straight off the boat" part:

e ----0--0--0-0--0--0-0--0--0-0--0--0-0-0-0-0-----------------------
B -----0--0----0--0----0--0----0--0--0-0-0-0-0-------------------
G ---3--3--3-3--3--3-2--2--2-2--2--2----------------------------

e ---0--0--0-0--0--0-0--0--0-0--0--0-0--0--0-0--0--------------------
B ----0--0----0--0----0--0----0--0----4--4----4--4-----------
G --3--3--3-3--3--3-2--2--2-2--2--2-4--4--4-4--4--4-----------------

	For the "Decide yourself.." part:

e --0--0--0-0--0--0------4--------
B ---4--4----4--4---5-5-5-5-5------
G -4--4--4-4--4--4-6-6-6---6-6-------

(play 2x)

	Listen to the record to get the right rhythm.

Jordan Ellenberg
ellenber@husc9.harvard.edu
jordan@think.COM


Important: The song above is NOT stored on the Chordie server. The original song is hosted at www.lindesign.se. Chordie works as a search engine and provides on-the-fly formatting. Chordie does not index songs against artists'/composers' will. To remove this song please click here.

This song is displayed as text-only. Transposing and tuning is only available for chordpro-songs.

Login - add to songbook

Rating click stars to rate

Layout
Accuracy

SHARE PAGE  




You need to log in to post comments