Guitar Tabs, Chords and Lyrics


Another Brick In The Wall -2   Pink Floyd


G ------/--------------------//-----------------------//----------------------







D ------/--------------------//.---------------------.//----------------------







A ------/--R1--------R1------//.----3-5---5-5-0-0-3--.//--------------------


D ---5--/-------0------------//---0-------------------//---5-----5-----5--5-


G -------------------------------------------------------------/------------


D -------------------------------------------------------------/------------


A -----------5-3-5---5-5----------3-----3-5---5-5-----------3--/------------


D ---5-5-5-5-------------7-7-5-3------0-----------7-7-5-3------/-0----------


G ---------------------//-------------------------------------------//------


D ---------------------//.-----------------------------------------.//------


A -----3-5---5-5-0-0-3 //.---5-3-5---5-5-0-0-3------3-5---5-5-0-0-3.//------


D ---0-----------------//-------------------------0-----------------//------


Important: The song above is NOT stored on the Chordie server. The original song is hosted at www.pinkfloyd-co.com. Chordie works as a search engine and provides on-the-fly formatting. Chordie does not index songs against artists'/composers' will. To remove this song please click here.

This song is displayed as text-only. Transposing and tuning is only available for chordpro-songs.

Login - add to songbook

Rating click stars to rate

Layout
Accuracy

SHARE PAGE  




You need to log in to post comments