Guitar Tabs, Chords and Lyrics

Me Neither-tab  Brad Paisley

e --15-------------------------------------

B ----17r15-13-----------------------------

G -------------------------14b16-16r14-12--

D -----------------------------------------

A -----------------------------------------

E -----------------------------------------

e --------------------------------------------------8--

B -----------------------------------------------------

G ---------------0-------0-----------5---7---5---7/9---

D ---------0-2p0---0h2p0---------5h7---5---5---5-------

A ----0-1p2----------------5h6h7-----------------------

E --2b3------------------------------------------------

[C]Darlin' I've been standing here just watchin you all night
and I think I even caught you watchin me a couple [G]times
If I don't ask I'll never know
This may sound dumb but here we go
Do you believe in [G7]love at first sight?
Me [F]neither (1)
I'm glad that we agree
be[C]lieve me (2)
that's a big relief
This [G]place is awful crowded and this music is so loud
would you [G7]like to go and grab a bite to eat?
Me [C]neither ... (Lick)
e --11----3------------------------------------------
B ----------0h4--------------------------------------
G -----12/5-----0h3-------------------------0h2-0----
D ------------------4-0h1h2-------------0h1----------
A --------------------------3-0-1h2-0h3-----------3--
E ---------------------------------------------------

It's ...
... [C]nice to finally meet a girl who doesn't move too fast
I was only checkin' that's the reason that I [G]asked
relationships need time to grow
you and I should take this slow
darlin' tell me [G7]would you like to dance
Me [F]neither (1)
I's just bein polite
Thank [C]goodness (2)
my feet are much too tired
I'm [G]sure you're tired too
I can see an empty booth
Would you like to maybe [G7]sit and talk a while
Me [F]neither (1)
We'd never get along
I'm [C]thinkin' (2)
there's no chemistry at all
this has [G]been a waste of time
and I'm runnin out of lines
don't you think it's time for [G7]me to end this song?
(Pause 1 measure)
Me [F]neither ... (solo)






(Not real sure about
this part because the
steel covers it up)
e ---------------------------------------
B ---------------------------------------
G --5-----6-------7-------8---------10/--
D --------------7-------8--------10------  Piano, Fiddle, Steel, Piano
A ----6/7---7/8-----8/9-----9/12---------
E ---------------------------------------






e ----------------------------------------------------------
B ----------------------------------------------------------
G -------------------12/10----------------------------------
D --7/10----12b13-10-------13-10-10----8---10p8-------------  Piano,

Fiddle, Piano, Steel, Piano
A -------10-------------------------10---6------7-----------
E ---------------------------------------------------3b5p1--

(This part sounds way off when you listen
to the song at full speed, but when you
it down it's spot on.)






e -------------
B -------------
G -------------
D -------------
A -------------
E --8-8-8-8-8--

(Palm muted) ... Chicken pick & slide on low E ... ad lib a little
Now that I have completed my life's work ...
Yes there are some spots where a hammer is a slide or he might play some
parts on
a different string, but these notes are as accurate as they're gonna get
Some parts may be iffy ... if anyone finds a blatant error just let me
know -- nobody's perfect
Oh yeah ... and if you can ever actually play this, ENJOY!
Chords: Chorus Licks:
    [F]    [C]    [G]    [G7]             [1]                 [2]                                                         
e --1---0---3---1--       e --8-----------------------------
B --1---1---0---0--       B ----10r8-6---------8p5-8--------
G --2---0---0---0--       G -------------------------9r7-5--
D --3---2---0---0--       D --------------------------------
A --3---3---2---2--       A --------------------------------
E --1-------3---3--       E --------------------------------

Important: The song above is NOT stored on the Chordie server. The original song is hosted at Chordie works as a search engine and provides on-the-fly formatting. Chordie does not index songs against artists/composers will. To remove this song please click here.

Text color:
Chord color:
Chord grids: 
Font size:    
Page size: 

A B C D E F G G7
variations - click chord images

Login - add to songbook

Transpose chords


Rating click stars to rate



You need to log in to post comments