I Wanna Dance With You-crd

Eddie Rabbitt

 AE
 I came in here to have a good time
 GD
With nothing particular on my mind
 AED
When I saw you sittin' there by yourself
 AE
Why don't we put a nickel in the ol' jukebox
 GD
 Come on baby I'll dance off your socks
 AED
Cause you sure look like you need a friend tonight
Chorus:
 AG
I wanna dance with you, be with you
 DE
 Baby you could show me a thing or two
 AG
I wanna dance with you, talk with you
 DE
 Maybe together we could shake the blues
 AG
I wanna dance with you, rock with you
 DE
 We'll have a ball before the night is through
A (bass build: A, B, C#, D, E, D, C#, B)
I wanna dance with you, I wanna dance with you
I wanna dance with you woo, woo, woo, woo
 AE
 I don't even know your name yet,
 GD
But you're the kind of girl a man can't forget
 AED
The way you move sure sets my soul on fire
Bridge:
 AE
So come on baby we'll show 'em all
 GD
We'll dance on the ceiling we'll dance on the wall
 AED
Before you're through dancing to this heart of mine, mine, mine
chorus
(solo)-shown below
Bridge
chorus
outro: A
 ABbBCDbD
|-8-8-8-5-5---------5-5-5--------------------------------------
|-8-8-8-5-5-7-5-----5-5-5-7-5-----5-5---5-5---5--5-6-7-8-9--10-
|-----------7-5h6---------7-5h6---5-5---5-5---5--6-7-8-9-10-11-
|-----------------7-------------7-----7-----7------------------
|--------------------------------------------------------------
|--------------------------------------------------------------

 DA
|---------------------------------------------------------
|-----13^-----13^-----13^-----13^----8^----8^----8^----8^-
|-14^-----14^-----14^-----14^-----9^----9^----9^----9^----
|---------------------------------------------------------
|---------------------------------------------------------
|---------------------------------------------------------

 EDA
|--------------------------------------------2-4-2-5-7-5-5\0-
|--------------------------------------2-3-2-2-2-2-5-5-5-5\0-
|-------------------------2-5p4p2-4-2--2-2-2-----------------
|-----------------0-0-2/4------------------------------------
|---------2-2-4-2--------------------------------------------
|-0-0-3-4----------------------------------------------------



A B Bb C D Db E G
variations - click chord images
Transpose chords:
Tuning:
Cool service:
View: Size:
A  A  A
Rating:
Layout:
  • Currently 3/5 Stars.
  • 1
  • 2
  • 3
  • 4
  • 5
 
Accuracy:
  • Currently 2.8/5 Stars.
  • 1
  • 2
  • 3
  • 4
  • 5
 
click stars to rate
Chordie recommends:
Get acoustic guitar lessons and electric guitar lessons at JamPlay.com
Songbook:
Login to add this song to your songbook
Support the artist
Preview/buy this song
MSN Music
Why this non-profit ad?

 
login to add comments/video/corrections