Guitar Tabs, Chords and Lyrics


When The Lights Go Down   Faith Hill



When the Lights Go Down (Guitar Solo) by Faith Hill
Key of (F#) - Standard Tuning - No Capo
 
When the Lights Go Down is a wonderful ballad with a killer powerful solo by Dann Huff, my hero!  Listen to CD for Timing
 
 Ê(1/2)Bend/ReleaseÊÊÊÊÊÊÊÊÊÊÊÊÊÊÊÊÊÊÊÊÊÊÊÊÊÊÊÊÊ(H)ÊÊÊ(Full Bend)
|--^-------------------(Full)Bend/Release------16-18-18-18-18----16----------------------(H)----------------
|-19-18-16-----------^-------------------------19---------------------------------18-16-11/13-13-11-13-11-13-
|---------------11-13-13----------------------------------------------------------------------------------------------------
|-------------------------------------------------------------------------------------------------------------------------------
|-------------------------------------------------------------------------------------------------------------------------------
|-------------------------------------------------------------------------------------------------------------------------------
 
|------------------------------------------------------------
|--12-14------------------(Slide for echo effect)-
|-----------14-13-11-13/------------------------------
|-----------------------------------------------6----------
|-----------------------------------------------4----------
|----------------------------------1/4--------------------
 ÊÊÊÊÊÊÊÊÊÊÊÊÊÊÊÊÊÊÊÊÊÊÊÊÊÊÊÊÊÊÊÊÊÊ(Slide straight from 1 to 4 & end on power chord)
 


Important: The song above is NOT stored on the Chordie server. The original song is hosted at www.roughstock.com. Chordie works as a search engine and provides on-the-fly formatting. Chordie does not index songs against artists'/composers' will. To remove this song please click here.

This song is displayed as text-only. Transposing and tuning is only available for chordpro-songs.

Login - add to songbook

Rating click stars to rate

Layout
Accuracy

SHARE PAGE  




You need to log in to post comments