Guitar Tabs, Chords and Lyrics


Dont Tell Me Youre Not In Love-tab  George Strait

[E]INTR[A]O[E] [A]
[E]I know you're ready, you show all the signs,
[Aadd9]Your eyes sparkle, oh how they shine.
[Am]But you keep saying you [B]can't take another heart[E]ache.
The way you hold me, the way that you move,
[Aadd9]Your feelings keep showing through.
Am B E *1
You can't hide it, it's written all over your face.
Don't tell [E]me you're not in love,
When your [Aadd9]heart beats like it does.
Your [B]trembling body tells on you each [E]time we touch.
You can tell me you're afraid,
I am [A]too and that's OK.
I've got [B]eyes, I can see,
E (*2 E A E)
Baby don't tell me, you're not in love.
[E]Sweet love songs bring you to tears,
[Aadd9]Come on baby, don't hide in your fear,
[Am]Let your lips say what [B]your heart already [E]knows.
Your denial is the last thing to fall,
[Asus]The only brick left holding the wall.
Am B E *1
Don't hold back, speak with your heart and your soul.
Don't tell [E]me you're not in love,
When your [Aadd9]heart beats like it does.
Your [B]trembling body tells on you each [E]time we touch.
You can tell me you're afraid,
I am [A]too and that's OK.
I've got [B]eyes, I can see,
E *3
Baby don't tell me, you're not in love.
I got [B]eyes, I can see,
E (*4 E A E)
Baby don't tell me, you're not in love.
***********************************************************************
/ = slide up h = hammer-on
p = pulloff
***********************************************************************
INTRO
E---------------------------------------------------------
B---------------------------------------------------------
G--------4-4-4-4--4-4-4---------4-4-4-4---4-4-4-----------
D-----2--4-4-4-2--4-2-4-4/6-----4-4-4-2---4-2-4-4/6-2-2---
A--2h4-----------2------------0----------0-----------4----
E------0--------------------------------------------------
E------------------------------------------------------|
B------------------------------------------------------|
G----4-4-4-4--4-4-4---------4-4-4-4--4-4-4-------------|
D----4-4-4-2--4-2-4-4/6-----4-4-4-2--4-2-4-4/6-4-2-2---|
A------------2------------0---------0-------------4----|
E--0---------------------------------------------------|

FILL *1
E---------------------|
B---------------------|
G---------------------|
D-----2-4/6-4-2-------|
A--2-4---------4-2----|
E-----------------0---|

FILL *2
E-------------------------------------------------------|
B-------------------------------------------------------|
G--4-4-4-4--4-4-4--------4-4-4-4--4-4-4-----------------|
D--4-4-4-2--4-2-4-4/6----4-4-4-2--4-2-4-4/6-4-2h4p2-2---|
A----------2------------0--------0-----------------4----|
E-------------------------------------------------------|

FILL *3
E--------------------|
B--------------------|
G--------------------|
D-----2-4/6-4-2------|
A--2-4---------4-2---|
E---------------4----|

FILL *4
E------------------------------------------------------
B------------------------------------------------------
G----4-4-4-4--4-4-4---------4-4-4-4---4-4-4------------
D----4-4-4-2--4-2-4-4/6-----4-4-4-2---4-2-4-4/6-4-2-2--
A------------2------------0----------0-------------4---
E------------------------------------------------------
E-----------------------------------------------------0-----|
B-----------------------------------------------------0-----|
G----4-4-4-4--4-4-4---------4-4-4-4--4-4-4------------1-----|
D----4-4-4-2--4-2-4-4/6-----4-4-4-2--4-2-4-4/6-4-2----2-----|
A------------2------------0---------0-------------4---2-----|
E--0--------------------------------------------------0-----


Important: The song above is NOT stored on the Chordie server. The original song is hosted at www.roughstock.com. Chordie works as a search engine and provides on-the-fly formatting. Chordie does not index songs against artists'/composers' will. To remove this song please click here.

Text color:
Chord color:
Chord grids: 
Font size:    
Page size: 

A Aadd9 Am Asus B E
variations - click chord images

Login - add to songbook

Transpose chords

Tuning

Rating click stars to rate

Layout
Accuracy

SHARE PAGE  




You need to log in to post comments