"yes"; ?> I Cross My Heart-tab by George Strait - guitar chords, guitar tabs and lyrics - chordie

I Cross My Heart-tab

George Strait

E--------------0---------------------2-----2-2h3p2--

B------3-----3---3----------2------3---3------------

G----2-----2-------2-------------2-------2----------

D--0------------------------2--0--------------------

A-------------------------2-------------------------

E--------2------------3-2---------------------------

E------------------------------------2-----2-2h3p2----

B------3------3--------------2-----3---3--------------

G------4------4------------2-----2-------2------------

D----4------4--------5---2-----0----------------------

A--2---------------5---0------------------------------

E---------5------3------------------------------------

E---------------------------3--0---------0------

B------3-------2------------3--2-------2---2----

G------4---------2----------4--2------2------2--

D----4-------2-----2------5----2----2-----------

A--2-------4------------5------0--0-------------

E--------2------------3-------------------------

E----------------------------------------0-------

B-----0-------3----------3-------------2---2-----

G-----0-----2---2----------4---------2-------2---

D---0-----0------------5-----5-----2-------------

A-2------------------5-----------0---------------

E-------2----------3-----------------------------

E--------------------------------------3----------

B------0-0----------3-----------5--------5--------

G------0---0------2---2-----------5--------5------

D----0----------0-------0-----------5-------------

A--2--------------------------3-------------------

E-------------2-------------3---------------------

E--0--(0)-0----

B--3--(3)-2----

G--0--(0)-0----

D--2--(2)-2----

A--0--(0)-0----

E--0--(0)-0----


 DD/GAbAD
   I cross my heart         and promise to 
 D/GAbAb/BbA7D
     give all I've got to give to make      your dreams come true
 D/GAbAA/GD/GAbD/G
In all  the world    you'll never find      a love as
 Em7A7D
 true    as  mine
Verse2:(same as first)
You will always be the miracle
that makes my life complete
and as long as there's a breath in me
I'll make yours just as sweet
As we look into the future
It's as far as we can see
So let's make each tomorrow
be the best that it can be
Chorus
Bridge:
 AbD/G
And if along the way, we find a day
 Em7A7D
     it starts to storm
 FAm7
You've got the promise of my love 
 Ebm7F/GAb/Bb
to keep  you warm 
Slide guitar solo:
 D/GAbAA/GD/GAbD/G
In all  the world    you'll never find      a love as
 Em7A7D
 true    as  mine
Chord Guide:
 DD/GAbAAb/BbA7A/GEm7FEbm7F/GAm7
E-2---0---3---0---3-----0----0--0----1---5-----1----0-
B-3---3---3---2---3-----2----2--0----2---6-----1----1-
G-2---2---4---2---4-----0----2--0----3---5-----2----0-
D-0---0---5---2---5-----2----2--0----3---7-----3----2-
A-0---0---5---0---x-----0----0--2----1---5-----x----0-
E-0---2---3---0---5-----0----3--0----1---x-----3----0-

Any corrections or death threats just email to unnatural9999@hotmail.com.
______________________________________________________
Get Your Private, Free Email at http://www.hotmail.com




A A/G A7 Ab Am7 D D/G Ebm7 Em7 F F/G
variations - click chord images
Transpose chords:
Tuning:
Cool service:
View: Size:
A  A  A
Rating:
Layout:
  • Currently 2.8/5 Stars.
  • 1
  • 2
  • 3
  • 4
  • 5
 
Accuracy:
  • Currently 2.5/5 Stars.
  • 1
  • 2
  • 3
  • 4
  • 5
 
click stars to rate
Chordie recommends:
Learn how to play guitar at JamPlay.com
Songbook:
Login to add this song to your songbook
Support the artist
Preview/buy this song
MSN Music
Why this non-profit ad?

 
login to add comments/video/corrections