Guitar Tabs, Chords and Lyrics


The Chair-tab   George Strait




Subject: The Chair Fingerstyle

                                The Chair

A George Strait tune arranged by Tracy McCallum tracymc1@gte.net
        e  e  e  e  e  e  e  e     e  e  e  e  e  e  e  e               
E-------3-----------------------|-----------3--------------|------------
B----------0-----------0--------|--------0-----0-----------|------------
G---4:--------0-----0--------0--|-----0-----------0-----0--|------------
D---4:--------------------------|--------------------------|------------
A-------------------------------|--------------------------|------------
E-------3--------3--------3-----|--3--------3--------3-----|------------
                                                                        

    e  e  e  e  e  e  e  e     e  e  e  e  e  e  s s  e                 
E---3-----------------------|-----------3----------------|--------------
B------0-----------0--------|--------0-----0-------------|--------------
G---------0-----0--------0--|-----0-----------0----------|--------------
D---------------------------|-------------------------0--|--------------
A---------------------------|--------------------0h2-----|--------------
E---3--------3--------3-----|--3--------3----------------|--------------
                                                                        

    e  e  e  e  e  e  e  e     e  e  e  e  e  e  e  e                   
E---------------------------|--0--------3--------------|----------------
B------------1--------------|-----1--------1-----------|----------------
G---------0-----0-----------|--------0--------0-----0--|----------------
D------2-----------2-----2--|--------------------------|----------------
A---0--------0--------0-----|--0--------0--------0-----|----------------
E---------------------------|--------------------------|----------------
                                                                        

    e  e  e  e  e  e  e  e     e  e  e  e  e  e  s s  e                 
E---------------------------|--0--------3----------------|--------------
B------------1--------------|-----1--------1-------------|--------------
G---------0-----0-----------|--------0--------0-------0--|--------------
D------2-----------2-----2--|--------------------0h2-----|--------------
A---0--------0--------0-----|--0--------0----------------|--------------
E---------------------------|----------------------------|--------------
                                                                        

    e  e  e  e  e  e  e  e     e  e  e  e  e  e  s s  e                 
E------------0--------------|--3--------2----------------|--------------
B---------1-----1-----------|-----1--------1-------------|--------------
G------2-----------2-----2--|--------2--------2-------0--|--------------
D---0--------0--------0-----|--0--------0--------0h2-----|--------------
A---------------------------|----------------------------|--------------
E---------------------------|----------------------------|--------------
                                                                        

    e  e  e  e  e  e  e  e     e  e  e  e  e  e  e  e                   
E------------2--------------|--2--------3--------2------||--------------
B---------1-----1-----------|-----1--------1--------1---||--------------
G------2-----------2-----2--|--------2--------2--------*||--------------
D---0--------0--------0-----|--0--------0--------0-----*||--------------
A---------------------------|---------------------------||--------------
E---------------------------|---------------------------||--------------
                                                                        



Important: The song above is NOT stored on the Chordie server. The original song is hosted at www.roughstock.com. Chordie works as a search engine and provides on-the-fly formatting. Chordie does not index songs against artists'/composers' will. To remove this song please click here.

This song is displayed as text-only. Transposing and tuning is only available for chordpro-songs.

Login - add to songbook

Rating click stars to rate

Layout
Accuracy

SHARE PAGE  




You need to log in to post comments