Guitar Tabs, Chords and Lyrics


The Cowboy Rides Away-tab  George Strait

    [G]                                                               [C]                       
e)---------------------------------------------------------------------------------|
b)---------------------------------------------------------------------------------|
g)---------------------------------------------------------------------------------|
d)--9-------------7-------------5-------------4---------------------------------|
a)--------10-------------9------------7--------------5----------3--------------|
e)---------------------------------------------------------------------------------|

   [C]                                                                  [G]                     
e)-------------------------------------------------------------------------------3|
b)---------------------------------------------------------------------------------|
g)---------------------------------------------------------------------------4----|
d)--7-------------5-------------4--------------2-------------------5-----------|
a)--------9--------------7------------5-------------3----2h3/7---------------|
e)---------------------------------------------------------------------------------|

Verse:
[G]I knew the stakes were high right from the start,[C]
[D]When she dealt the cards I dealt my heart,[G]
[G]Now I just found a game that I can't play,[C]
[D]This is where the cowboy rides away.[G]
(Chorus)
[G]And my heart is sinking like the setting sun,[C]
[D]Setting all the things I wish I'd done.[G]
It's time to say goodbye to yesterday,[C]
[D]This is where the cowboy rides away.[G]
(Intro): G C D G
Verse:
[G]We've been in and out of love and in between,[C]
And now[D] we've played the final showdown scene.[G]
And as the credits roll a sad song starts to play,[C]
[D]This is where the cowboy rides away.[G]
(Chorus)
[G]And my heart is sinking like the setting sun,[C]
[D]Setting all the things I wish I'd done[G]
[G]Oh the last goodbye's the hardest one to say,[C]
[D]This is where the cowboy rides away.[G]
[G]Oh the last goodbye's the hardest one to say,[C]
[D]This is where the cowboy rides away[G]
Play intro to end song

Important: The song above is NOT stored on the Chordie server. The original song is hosted at www.roughstock.com. Chordie works as a search engine and provides on-the-fly formatting. Chordie does not index songs against artists'/composers' will. To remove this song please click here.

Text color:
Chord color:
Chord grids: 
Font size:    
Page size: 

C D G
variations - click chord images

Login - add to songbook

Transpose chords

Tuning

Rating click stars to rate

Layout
Accuracy

SHARE PAGE  




You need to log in to post comments